The Chosen Summoner (Final Fantasy IX) Guitar Tab

Submitted: May 31, 2010 by Daugreano

0
Download | Listen
Game: Final Fantasy IX
Composer(s): Nobuo Uematsu
Style: Alternate picking, Transcription
Series: Final Fantasy

AutoScroll: Slow | Medium | Fast
Song: Chosen Summoner
Game: Final Fantasy IX
Composer: Nobuo Uematsu
 
Daugreano

Guitar: 

   E   E   E   E   E   E   E   E     E   E   E   E   E   E   E   E     E   E   E   E   E   E   E   E
E|-------------3-------------------|-------------3-------------------|-------------1-------------------|
B|-----0---2-------2---0-------0---|-----0---2-------2---0-------0---|-----0---2-------2---0-------0---|
G|-0-----------------------0-------|-0-----------------------0-------|-------------------------0-------|
D|---------------------------------|---------------------------------|-4-------------------------------|
A|---------------------------------|---------------------------------|---------------------------------|
E|---------------------------------|---------------------------------|---------------------------------|

   E   E   E   E   E   E   E   E     E   E   E   E   E   E   E   E     E   E   E   E   E   E   E   E
E|-------------1-------------------|-------------3-------------------|-------------3-------------------|
B|-----0---2-------2---0-------0---|-----0---2-------2---0-------0---|-----0---2-------2---0-------0---|
G|-------------------------0-------|-0-----------------------0-------|-0-----------------------0-------|
D|-4-------------------------------|---------------------------------|---------------------------------|
A|---------------------------------|---------------------------------|---------------------------------|
E|---------------------------------|---------------------------------|---------------------------------|

   E   E   E   E   E   E   E   E     E   E   E   E   E   E   E   E     Q    E   E   H
E|-------------1-------------------|-------------1-------------------|------0---2---------|
B|-----0---2-------2---0-------0---|-----0---2-------2---0-------0---|-3------------2-----|
G|-------------------------0-------|-------------------------0-------|--------------------|
D|-4-------------------------------|-4-------------------------------|--------------------|
A|---------------------------------|---------------------------------|--------------------|
E|---------------------------------|---------------------------------|--------------------|

   E   E   E   E   E   E   E   E     E   E   E   E   H       E   E   E   E   E   E   E   E
E|-------------0-------------------|-----------------------|---------------------------------|
B|-----0---2-------2---0-------0---|-2---3---2-------0-----|-----0---2---3---2---0-------0---|
G|-0-----------------------0-------|-------------2---------|-0-----------------------0-------|
D|---------------------------------|-----------------------|---------------------------------|
A|---------------------------------|-----------------------|---------------------------------|
E|---------------------------------|-----------------------|---------------------------------|

   E   E   E   E   H       H     Q    Q      E   E   H        E   E   E   E   E   E   E   E
E|-3---2---2---0---0-----|-------0---------|-----0---2------|---------------------------------|
B|-----------------------|------------2----|-3--------------|-----0---2---3---2---0-------0---|
G|-----------------------|-----------------|----------------|-0-----------------------0-------|
D|-----------------------|-----------------|----------------|---------------------------------|
A|-----------------------|-----------------|----------------|---------------------------------|
E|-----------------------|-----------------|----------------|---------------------------------|

   Q    E   E   Q    E   E     W        H     E   E   E   E     W
E|-3----5---7---12---7---5---|-3------|-------5---3---3---2---|-2------|
B|---------------------------|--------|-----------------------|--------|
G|---------------------------|--------|-----------------------|--------|
D|---------------------------|--------|-----------------------|--------|
A|---------------------------|--------|-----------------------|--------|
E|---------------------------|--------|-----------------------|--------|



Login or Register to remove this ad.