Ads

Bran Bal ~The Village Without Souls~ (Final Fantasy IX) Guitar Tab

Submitted: Oct 20, 2013 by thedstring

5
Average: 5 (3 votes)
Download | Listen
Game: Final Fantasy IX
Composer(s): Nobuo Uematsu
Style: Arrangement, Fingerstyle
Series: Final Fantasy

AutoScroll: Slow | Medium | Fast
Final Fantasy IX - Bran Bal ~The Village Without Souls~

Arranged by Nate Brooks (thedstring)
with help from TheDoomOfAllFires, 12/25/2008 tab


Drop D Tuning


      E  E  E  E  E  E     E  E  E  E  E  E     E  E  E  E  E  E   
E||---0-----1-----0-----|--3-----1-----0-----|--------------------|
B||------------1--------|-----------1--------|--4--------4--------|
G||*--------2-----2-----|--------2-----2-----|--------5-----5-----|
D||*-----2-----------2--|-----2-----------2--|-----5-----------5--|
A||---0-----------------|--0-----------------|--3-----------------|
D||---------------------|--------------------|--------------------|


  E  E  E  E  E  E     E  E  E  E  E  E     E  E  E  E  E  E   
--------------------|--------------------|--------------------|
-----------4--------|--------6-----------|--8-----6-----------|
--------5-----5-----|--8-----------8-----|--------------8-----|
-----5-----------5--|--------6-----6-----|--------6-----6-----|
--3-----------------|-----6-----6-----6--|-----6-----6-----6--|
--------------------|--6-----------------|--6-----------------|


  E  E  E  E  E  E     E  E  E  E  E  E     E  E  E  E  E  E   
--------------------|--------------------|--------------------|
--3-----------------|--------------------|--3-----4-----3-----|
--------------------|--------------------|--------0-----0-----|
--------3--6--3-----|--------3--6--3-----|-----0-----0-----0--|
-----3-----------3--|-----3-----------3--|--------------------|
--3-----------------|--3-----------------|--5-----------------|


  E  E  E  E  E  E     E  E  E  E  E  E     E  E  E  E  E  E   
--------------------|--------------------|--------------------|
--6-----4-----3-----|--------------------|--------------------|
--------0-----0-----|--5--------5--------|-----------5--------|
-----0-----0-----0--|--------6-----6-----|--------6-----6-----|
--------------------|-----6-----------6--|-----6-----------6--|
--5-----------------|--6-----------------|--6-----------------|


  E  E  E  E  E  E     E  E  E  E  E  E     E  E  E  E  E  E   
--------------------|--------------------|-----------0--------|
--------------------|--------------------|--1-----1-----1-----|
--5-----------------|--------------3-----|-----0-----------0--|
--------3--6--3-----|--6-----3-----3-----|--------------------|
-----3-----------3--|-----3-----3-----3--|--3-----------------|
--3-----------------|--3-----------------|--------------------|


  E  E  E  E  E  E        E  E  E   E  E  E     E  E  E  E  E  E   
-----------0---------||---8--------10--8-----|--4-----------------|
--------1-----1------||----------------------|--------------------|
-----0-----------0--*||*---------------------|--------------------|
--------------------*||*--------7------------|--------3--5--6--3--|
--3------------------||------7------------7--|-----3--------------|
---------------------||---7------------------|--3-----------------|


  E  E  E  E  E  E     E  E  E  E  E  E     E  E  E  E  E  E   
--3-----------------|--------------------|--6-----8-----6-----|
-----------4--6-----|--8-----------------|--------------------|
--------5-----------|--------------------|--------8-----------|
-----5-----5--------|--------5--8--5-----|-----8-----8-----8--|
--3--------------3--|-----5-----------5--|--6-----------------|
--------------------|--5-----------------|--------------------|


  E  E  E  E  E  E     E  E  E  E  E  E     E  E  E  E  E  E     
--3-----------------|--3-----------------|---------------------||
-----------4--6-----|-----------0--------|-----------0---------||
--------------------|--------0-----0-----|--------0-----0-----*||
--------3-----------|-----0-----------0--|-----0-----------0--*||
-----3-----------3--|--------------------|---------------------||
--3-----------------|--5-----------------|--5------------------||


   E  E  E  E  E  E     E  E  E  E  E  E     E  E  E  E  E  E   
---0-----1-----0-----|--3-----1-----0-----|--------------------|
------------1--------|-----------1--------|--4--------4--------|
*--------2-----2-----|--------2-----2-----|--------5-----5-----|
*-----2-----------2--|-----2-----------2--|-----5-----------5--|
---0-----------------|--0-----------------|--3-----------------|
---------------------|--------------------|--------------------|


  E  E  E  E  E  E     E  E  E  E  E  E     E  E  E  E  E  E   
--------------------|--------------------|--------------------|
-----------4--------|--------6-----------|--8-----6-----------|
--------5-----5-----|--8-----------8-----|--------------8-----|
-----5-----------5--|--------6-----6-----|--------6-----6-----|
--3-----------------|-----6-----6-----6--|-----6-----6-----6--|
--------------------|--6-----------------|--6-----------------|


  E  E  E  E  E  E     E  E  E  E  E  E     E  E  E  E  E  E   
--------------------|--------------------|--------------------|
--3-----------------|--------------------|--------------------|
--------------------|--------------------|--7-----8-----7-----|
--------3--6--3-----|--------3--6--3-----|--------5-----5-----|
-----3-----------3--|-----3-----------3--|-----5-----5-----5--|
--3-----------------|--3-----------------|--5-----------------|


  E  E  E  E  E  E     E  E  E  E  E  E     E  E  E  E  E  E   
--------------------|--------------------|--------------------|
--6-----------------|--------------------|--------------------|
--------8-----7-----|--5--------5--------|-----------5--------|
--------5-----5-----|--------6-----6-----|--------6-----6-----|
-----5-----5-----5--|-----6-----------6--|-----6-----------6--|
--5-----------------|--6-----------------|--6-----------------|


  E  E  E  E  E  E     E  E  E  E  E  E     E  E  E  E  E  E   
--------------------|--------------------|-----------0--------|
--------------------|--------------------|--1-----1-----1-----|
--5-----------------|--------------3-----|-----0-----------0--|
--------3--6--3-----|--6-----3-----3-----|--------------------|
-----3-----------3--|-----3-----3-----3--|--3-----------------|
--3-----------------|--3-----------------|--------------------|


  E  E  E  E  E  E        E  E  E   E  E  E     E  E  E  E  E  E   
-----------0---------||---8--------10--8-----|--4-----------------|
--------1-----1------||----------------------|--------------------|
-----0-----------0--*||*---------------------|--------------------|
--------------------*||*--------7------------|--------3--5--6--3--|
--3------------------||------7------------7--|-----3--------------|
---------------------||---7------------------|--3-----------------|


  E  E  E  E  E  E     E  E  E  E  E  E     E  E  E  E  E  E   
--3-----------------|--------------------|--6-----8-----6-----|
-----------4--6-----|--8-----------------|--------------------|
--------5-----------|--------------------|--------8-----------|
-----5-----5--------|--------5--8--5-----|-----8-----8-----8--|
--3--------------3--|-----5-----------5--|--6-----------------|
--------------------|--5-----------------|--------------------|


  E  E  E  E  E  E     E  E  E  E  E  E     E  E  E  E  E  E     
--3-----------------|--3-----------------|---------------------||
-----------4--6-----|-----------0--------|-----------0---------||
--------------------|--------0-----0-----|--------0-----0-----*||
--------3-----------|-----0-----------0--|-----0-----------0--*||
-----3-----------3--|--------------------|---------------------||
--3-----------------|--5-----------------|--5------------------||


  ^              
  H.             
---------------||
--4------------||
---------------||
--5------------||
--3------------||
---------------||
Login or Register to remove this ad.

3 comments on Bran Bal ~The Village Without Souls~

The first 4 measures are the

5

The first 4 measures are the same as TheDoomOfAllFires's tab, but after that it gets pretty different.

Here I thought I didn't give

5

Here I thought I didn't give a damn about bran bal but this was just a pleasure to play!

Thanks buddy!!!

Thanks buddy!!!