Ads

Border Village Dali (Final Fantasy IX) Guitar Tab

Submitted: May 03, 2022 by Neil Dobbs (Last updated: May 04, 2022)

5
Average: 5 (1 vote)
Download | No audio :(
Game: Final Fantasy IX
Composer(s): Nobuo Uematsu
Style: Fingerstyle
Series: Final Fantasy

Click here for a video example.

AutoScroll: Slow | Medium | Fast
Composer: Nobuo Uematsu
Arrangement for Guitar: Nobuyuki Hirakura
From the book, Final Fantasy Guitar Solo Collections
As performed by Yuji Moriya aka The Classical Rebel on Youtube
Tabbed by Neil Dobbs on 04/05/22


e--0------------0--------1------------1--------2------------2--------1------------1--------
B-----3-----3------3--------3-----3------3--------3-----3------3--------1-----1—-----1-----
G--------0------------0--------2------------2--------2------------2--------2------------2--
D------------------------------------------------------------------------------------------
A--3---------------------3---------------------3---------------------3---------------------
E------------------------------------------------------------------------------------------

                          p           r    m                  i  p       B   p
e-------0--1--3--------0--5-----3-----------0--------------------8---7----------7------
B----------------1-----------------3-----3-----3--1-----1--3--5---------10--10-----10--
G----0--------------0--------0-----------------------2--------5------------------------
D-------------------------------------------------------------5------7-----------------
A--3----------3-----------2-----------2-----------0------------------8-----------------
E--------------------------------------------------------------------------------------

   B          B        p  mp                       ip       m  ip     p   R  m   p
e---------------------10--3------------------------3-----0--1--3-----12---5-----------
B--8-------------8--------------------------------------------------------5------8----
G---------9--10----9------------0-----------0---------0-----------0-------7--6--------
D----------------------------0-----0-----0-----0--------------------------------------
A-----10------------------2-----------2------------1-----------1----------0-----------
E--8-------------8--------------------------------------------------------------------

   B                 p   B  p  r     m   p  r                    *  mr i  i    R   p   i
e--------------------8---8------------------0--------------0--1--0--0---------------------
B--8-----5--6--8------------9--8--6------------------------------------3--3----1----------
G------------------------7-----------5---7--------0-----------------5----------1---3---2-- :
D-----7-----------7----------------------------2-----2-------------------------0----------
A--5-----------5----------------------------3-----------3----------------------1----------
E------------------------6------------------------------------------4--------------------- Rep to*


•	continued
                    p      p   p     i    m                 r  i  B  i  p    p  m  r       
e--0-------------------0---7---3------------------------0---7--5--8-------------7--8--
B-----3--3------1---3----------0-------------------1--3-----------6---------10--------
G--2--------1---2--------------0---------------2------------------7-------------------
D---------------2------------------------------2------------------0-------------0-----
A---------------0--------------------2---------0---------------------7--9----0--------
E--0---------------------------0----------3-------------------------------------------

   B      p                 B                       p   m                                               
e--8--------------------------------------------7---5---3--------------0--2--3--1--
B--------10----------------------------------7----------------0--------------------
G--------------10----9------8-------------8----------------0-----0-----------------
D-----10----10----10----10---------7-----------------------------------------------
A--8----------------------------9-----9--------------------------------------------
E---------------------------7-------------7-------------0-----------0-----------3--

                        B
e-----------------------------------------------
B-----0-----3-----------4-----------6--4-----4--
G--0-----0--------------------5-----------9-----
D--------------------0-----6-----6--------------
A--------------0--2-----------------------------
E-----------3-----------4-----------4-----------

  pm  r  i             R        
e----------------------0------------0--------1------------1--------2------------2--------
B--3-----------0---1---1--3-----3------3--------3-----3------3--------3-----3------3-----
G--------2-----2-------------0------------0--------2------------2--------2------------2--
D-----3-----3--3-------------------------------------------------------------------------
A----------------------3---------------------3---------------------3---------------------
E--3-----------3-------------------------------------------------------------------------

                          R
e--1------------1---------0--
B-----1-----1------1------0--
G--------2------------2---0--
D----------------------------
A--3----------------------3--
E----------------------------
Login or Register to remove this ad.

2 comments on Border Village Dali

It's really the sheet music I

It's really the sheet music I was looking for. Thanks to you, I'm looking for good information스포츠토토

It's really the sheet

This is the yacht information I was looking for, thank you온라인카지노