Ads

Black Mage Village (Final Fantasy IX) Guitar Tab

Submitted: Jul 14, 2013 by Colin_spade

4.75
Average: 4.8 (4 votes)
Download | Listen
Game: Final Fantasy IX
Composer(s): Nobuo Uematsu
Style: Arrangement, Fingerstyle
Series: Final Fantasy

AutoScroll: Slow | Medium | Fast
Black Mages Village                               


                                                                   Nobuo Uematsu
Track 1



     Q    Q    Q    Q       Q    Q    Q    Q       Q    Q    Q    Q     
E||----------------------|----------------------|----------------------|
B||----------------------|----------------------|----------------------|
G||----------------------|----------------------|----------------------|
D||----------------------|----------------------|----------------------|
A||--0---------0---------|--0---------0---------|--0---------0---------|
E||----------------------|----------------------|----------------------|


  Q    Q    Q    Q         E  E  E  E  Q    E  E     Q    Q    Q    E  E   
----------------------||---5--4--5--2--4----2--0--|--2---------0----5--4--|
----------------------||--------------------------|-------3---------------|
----------------------||*-------------------------|-----------------------|
----------------------||*-------------------------|-----------------------|
--0---------0---------||---0-----------0----------|--0---------0----------|
----------------------||--------------------------|-----------------------|


  E  E  E  E  Q    E  E     Q    Q    Q    Q       Q    E  E  Q    E  E   
--5--4--5--2--4----2--0--|--2-------------------|------------------------|
-------------------------|----------------------|------------------------|
-------------------------|----------------------|-------2--2-------2--2--|
-------------------------|----------------------|------------------------|
--0-----------0----------|--0----L----0---------|--0----------0----------|
-------------------------|----------------------|------------------------|


  Q    E  E  Q    E  E     Q    E  E  Q    E  E     Q    E  E  Q    E  E   
------------------------|------------------------|------------------------|
------------------------|------------------------|------------------------|
-------2--2-------2--2--|-------2--2-------2--2--|-------2--2-------2--2--|
------------------------|------------------------|------------------------|
--0----------0----------|--0----------0----------|--0----------0----------|
------------------------|------------------------|------------------------|


  Q    Q    Q    Q       Q    Q    Q    Q       Q    Q    Q    Q     
----------------------|----------------------|----------------------|
----------------------|----------------------|----------------------|
--2----2---------2----|--2----2---------2----|--2----2---------2----|
----------------------|----------------------|----------------------|
--0---------0---------|--0---------0---------|--0---------0---------|
----------------------|----------------------|----------------------|


  Q    E  E  Q    E  E     Q    Q    Q    Q       Q    Q    Q    Q     
------------------------|----------------------|----------------------|
------------------------|----------------------|----------------------|
--2----2--2-------2--2--|--2----2---------2----|--2----2---------2----|
------------------------|----------------------|----------------------|
--0----------0----------|--0---------0---------|--0---------0---------|
------------------------|----------------------|----------------------|


  Q    Q    Q    Q       Q    Q    Q    Q       E  E  Q    Q    E  E   
----------------------|----------------------|--0-----0------------0--|
----------------------|----------------------|-----4-------1----3-----|
--2----2---------2----|--2----2---------2----|------------------------|
----------------------|----------------------|------------------------|
--0---------0---------|--0---------0---------|--0----------0----------|
----------------------|----------------------|------------------------|


  Q    E  E  Q    Q       Q    Q    Q    E  E     Q    Q    Q    Q     
--2----0-----0---------|-------0----2----0-----|--0-------------------|
----------4-------1----|--4-----------------4--|----------------------|
-----------------------|-----------------------|----------------------|
-----------------------|-----------------------|----------------------|
--0----------0---------|--0---------0----------|--0---------0---------|
-----------------------|-----------------------|----------------------|


  Q    Q    Q    Q       Q    Q    Q    Q       Q    E  E  E  E  E  E   
----------------------|----------------------|-------------------------|
----------------------|----------------------|-------------------------|
----------------------|----------------------|--2----0--2--------------|
----------------------|----------------------|--2----0--2-----2--2--2--|
--0---------0---------|--0---------0---------|--0----------0--0--0--0--|
----------------------|----------------------|-------------------------|


  E  E  Q    E  E  Q       Q    E  E  E  E  E  E     E  E  Q    E  E  Q     
------------------------|-------------------------|------------------------|
------------------------|-------------------------|------------------------|
--------2----0--2-------|--2----0--2--------------|--------2----0--2-------|
-----2--2----0--2-------|--2----0--2-----2--2--2--|-----2--2----0--2-------|
--0--0-------0----------|--0----------0--0--0--0--|--0--0-------0----------|
------------------------|-------------------------|------------------------|


  Q    Q    Q    Q       Q    Q    Q    Q       E  E  E  E  Q    E  E   
----------------------|----------------------|-------------------------|
----------------------|----------------------|-------------------------|
--2--------------2----|--2-------------------|--2--0--2-----0----------|
----------------------|----------------------|--0--------3--2----3--2--|
--0---------0---------|--0---------0---------|-------------------------|
----------------------|----------------------|-------------------------|


  Q    Q    Q    E  E     E  E  E  E  Q    E  E     Q    Q     Q     Q     
-----------------------|-------------------------|------------------------|
-----------------------|-------------------------|------------------------|
-----------------2--0--|--2--0--2-----0----------|------------------------|
--3----0----2----------|--0--------3-------3--2--|--3---------(3)---------|
-----------------------|--------------3----------|--1----------1----------|
--1---------0----------|-------------------------|------------------------|


   Q     Q    Q    Q       Q    Q    Q    Q       Q    Q    Q    Q     
------------------------|----------------------|----------------------|
------------------------|----------------------|----------------------|
------------------------|----------------------|----------------------|
--(3)-------------------|----------------------|----------------------|
---1----------1---------|--1---------1---------|--1---------1---------|
------------------------|----------------------|----------------------|


  E  E  Q    Q    E  E     Q    E  E  Q    Q       Q    Q    Q    E  E   
--0-----0------------0--|--2----0-----0---------|-------0----2----0-----|
-----4-------1----3-----|----------4-------1----|--4-----------------4--|
------------------------|-----------------------|-----------------------|
------------------------|-----------------------|-----------------------|
--0----------0----------|--0----------0---------|--0---------0----------|
------------------------|-----------------------|-----------------------|


  Q    Q    Q    Q       Q    Q    Q    Q       Q    Q    Q    Q     
--0-------------------|----------------------|--0-------------------|
----------------------|----------------------|----------------------|
----------------------|----------------------|----------------------|
----------------------|----------------------|----------------------|
--0---------0---------|--0---------0---------|--0---------0---------|
----------------------|----------------------|----------------------|


  Q    E  E  E  E  E  E     E  E  Q    E  E  Q       Q    E  E  E  E  E  E   
-------------------------|------------------------|-------------------------|
-------------------------|------------------------|-------------------------|
--2----0--2--------------|--------2----0--2-------|--2----0--2--------------|
--2----0--2-----2--2--2--|-----2--2----0--2-------|--2----0--2-----2--2--2--|
--0----------0--0--0--0--|--0--0-------0----------|--0----------0--0--0--0--|
-------------------------|------------------------|-------------------------|


  E  E  Q    E  E  Q       Q    Q    Q    E  E     Q    Q    Q    E  E   
------------------------|--3---------3----------|--3---------2----0-----|
------------------------|-----------------------|-----------------------|
--------2----0--2-------|-----------------------|-----------------------|
-----2--2----0--2-------|-------2---------2--2--|-------2---------2--2--|
--0--0-------0----------|-----------------------|-----------------------|
------------------------|--0---------0----------|--0---------0----------|


  Q    E  E  Q    E  E     Q    E  E  Q    E  E     Q    Q    Q    E  E   
-------0-----2----------|------------------------|--3---------3----------|
--4---------------3-----|--0----------2----4-----|-----------------------|
------------------------|------------------------|-----------------------|
------------------------|------------------------|-------2---------2--2--|
--3----3--3--3----3--3--|--3----3--3--3----3--3--|-----------------------|
------------------------|------------------------|--0---------0----------|


  Q    Q    Q    E  E     Q    E  E  Q    E  E     Q    E  E  Q    E  E   
--3---------2----0-----|--5----------2----------|------------------------|
-----------------------|------------------------|--3---------------------|
-----------------------|------------------------|------------------------|
-------2---------2--2--|--0----0--0--0----0--0--|--0----0--0--0----0--0--|
-----------------------|------------------------|------------------------|
--0---------0----------|------------------------|------------------------|


  Q    E  E  Q    E  E     Q    E  E  Q    E  E     Q    E  E  Q    E  E   
--7----------7----------|--7----------5----3-----|--2----3-----5----2-----|
------------------------|------------------------|------------------------|
------------------------|------------------------|------------------------|
------------------------|------------------------|--0----0--0--0----0--0--|
------------------------|------------------------|------------------------|
--3----3--3--3----3--3--|--3----3--3--3----3--3--|------------------------|


  Q    E  E  Q    E  E     Q    E  E  Q    E  E     Q    E  E  Q    E  E   
-------------0----2-----|--3----------0----------|------------------0-----|
--3---------------------|------------------------|--4---------------------|
------------------------|------------------------|------------------------|
--0----0--0--0----0--0--|------------------------|------------------------|
------------------------|--3----3--3--3----3--3--|--3----3--3--3----3--3--|
------------------------|------------------------|------------------------|


  Q    E  E  Q    E  E     Q    E  E  Q    E  E     Q    E  E  Q    E  E   
--0---------------------|------------------------|------------------------|
------------------------|------------------------|------------------------|
------------------------|------------------------|------------------------|
-------2--2-------2--2--|-------2--2-------2--2--|-------2--2-------2--2--|
------------------------|------------------------|------------------------|
--0----------0----------|--0----------0----------|--0----------0----------|


  Q    E  E  Q    E  E     
-------------------------||
-------------------------||
------------------------*||
-------2--2-------2--2--*||
-------------------------||
--0----------0-----------||




Duration Legend
---------------
W - whole
H - half
Q - quarter
E - 8th
S - 16th
T - 32nd
X - 64th
. - note dotted
|-n-|  - n-tuplets


Tablature Legend
----------------
L - tied note
x - dead note
g - grace note
(n) - ghost note
> - accentuded note
NH - natural harmonic
AH - artificial harmonic
TH - tapped harmonic
SH - semi harmonic
PH - pitch harmonic
h - hammer on
p - pull off
b - bend
br - bendRelease
pb - preBend
pbr - preBendRelease
brb - bendReleaseBend
\n/ - tremolo bar dip
\n - tremolo bar dive
-/n - tremolo bar Release up
/n\ - tremolo bar inverted dip
/n - tremolo bar return
-\n - tremolo bar Release down
S - shift slide
s - legato slide
/ -  slide into from below or out of upwards
\ -  slide into from above or out of downwards
~ - vibrato
W - wide vibrato
tr - trill
TP - tremolo picking
T - tapping
S - slap
P - pop
< - fade in
^ - brush up
v - brush down
Login or Register to remove this ad.