Ads

Bittersweet Romance (Final Fantasy IX) Guitar Tab

Submitted: Jul 06, 2013 by Colin_spade

5
Average: 5 (5 votes)
Download | Listen
Game: Final Fantasy IX
Composer(s): Nobuo Uematsu
Style: Arrangement, Fingerstyle, Natural harmonics
Series: Final Fantasy

AutoScroll: Slow | Medium | Fast
Bittersweet Romance                               


                                                                   Nobuo Uematsu
Track 1



     ^         ^                                       ^         ^          
     Q    Q    Q.     E     E  E  E  E  E  E  E  E     Q    Q    Q.     E   
E||-------------------0--|--2-----------------------|-------0--------------|
B||-------2--------------|-----------------------0--|--1---------0---------|
G||--2---------1---------|-----------------1--2-----|-------------------0--|
D||-------------------2--|--0-----0--2--4-----------|--2---------2---------|
A||--4---------4---------|-----0--------------------|--0-------------------|
E||--2---------0---------|--------------------------|------------3---------|


  E  E  E  E  E  E  E  E     E  E  E  E  E  E  E  E     E  E  Q    E  E  E  E   
--------------------------|--------------------------|-------------------------|
-----------------------0--|--1-----0-----------------|--0--1-------------------|
--2-----0-----------2-----|-----------2--0--------0--|--------2----------------|
-----------3--2--0--------|--0-----------------2-----|--------3----L--2--0-----|
-----3--------------3--2--|-----0--4--------2--------|-----3----------------3--|
--1-----------------------|--------------0-----------|--1----------------------|


  Q    E  E  Q    Q       E  E  E  E  H           E  E  E  E  E  E  E  E   
-----------------------|-----------------------|--------------------------|
-----------------------|--------------2--------|--------0-----------0-----|
--2----1---------------|-----------2-----------|--0-----------------------|
-------0--4--2---------|--4-----4--------------|--------2-----4-----0-----|
--2----0-----4----4----|-----4-----------------|-----2-----2-----2-----2--|
--2--------------------|--2--------------------|--0-----------0-----------|


                                         ^                   
                                         |--3--|  |-3| |3|   
  E  E  E  E  E  E  E  E     E  E  E  E  E  E  E  E  S S E   
--------------------------|---------------------------------|
--------------------------|--0--------1--3--------1----0----|
--------------------0--2--|---------------------------------|
--2--------0--2--0--------|--------0-----4--0-----0---------|
--3-----3-----------3--0--|-----2-----2--2-----2-----2------|
-----3--------------------|--3---------------------------2--|


  ^                                                   ^                     
  E  E  E  E  E  E  E  E     E  E  E  E  Q.     E     E  E  E  E  H         
--0-----------------------|--0-----0--7---------0--|-----0-----7--0--------|
--1-----3-----1-----0-----|-----3--------7---------|--7-----7--------------|
-----0-----0-----0-----0--|------------------------|-----------------------|
--------------------------|--------------0---------|--0--------------------|
--3-----2-----0-----------|--3-----2-----0---------|--------4-----3--------|
--------------------3-----|--5-----3---------------|--7-----5-----3--------|


  H        Q    Q       E  E  E  E  E  E  E  E     E  E  E  E  E  E  E  E   
---------------------|--------------------------|--------------------------|
---------------------|--------------------------|--------1--0--------------|
--0--------0---------|--0-----------------------|-----0--------2--0--------|
-----------2----4----|--------4--2--0--0-----0--|--4-----2-----------4--2--|
--3--------3----2----|--0-----0--3--2-----2-----|--3-----------------------|
---------------------|-----0--------------------|--------------------------|


                                                      ^                        
  E  E  E  E  Q    Q       E  E  E  E  E  E  E  E     E  E  E  E  E  E  E  E   
--------------0----2----|--3-----2--0--------------|--0-----------------------|
--------------1----3----|--------------3-----0-----|--------0-----0-----0-----|
------------------------|--------------------------|-----0-----0-----0-----0--|
--0---------------------|-----------------0--------|--2-----------------------|
-----3--2--0--3----2----|--0-----0--3--2--------2--|--------------------------|
------------------------|-----0--------------2-----|--0-----------------------|


  E  E  E  E  E  E  E  E     E  E  E  E  E  E  Q       E  E  E  E  E  E  E  E   
--------------------------|--3-----2--0-------------|--0--------------0--3--7--|
--------0-----0-----0-----|--------------3-----0----|--------------0-----------|
-----0-----0-----0-----0--|-------------------------|-----------0--------------|
--0-----------------------|--------------0-----0----|--------2-----------------|
--------------------------|--3-----3----------------|-----2--------------------|
--------------------------|-----3-----------2-------|--0-----------------------|


     ^                  
     W                  
--<>12----------------||
--<>12----------------||
--<>12----------------||
----------------------||
----------------------||
-----0----------------||




Duration Legend
---------------
W - whole
H - half
Q - quarter
E - 8th
S - 16th
T - 32nd
X - 64th
. - note dotted
|-n-|  - n-tuplets


Tablature Legend
----------------
L - tied note
x - dead note
g - grace note
(n) - ghost note
> - accentuded note
NH - natural harmonic
AH - artificial harmonic
TH - tapped harmonic
SH - semi harmonic
PH - pitch harmonic
h - hammer on
p - pull off
b - bend
br - bendRelease
pb - preBend
pbr - preBendRelease
brb - bendReleaseBend
\n/ - tremolo bar dip
\n - tremolo bar dive
-/n - tremolo bar Release up
/n\ - tremolo bar inverted dip
/n - tremolo bar return
-\n - tremolo bar Release down
S - shift slide
s - legato slide
/ -  slide into from below or out of upwards
\ -  slide into from above or out of downwards
~ - vibrato
W - wide vibrato
tr - trill
TP - tremolo picking
T - tapping
S - slap
P - pop
< - fade in
^ - brush up
v - brush down
Login or Register to remove this ad.

1 comment on Bittersweet Romance

moar ff9 yisssss

5

moar ff9 yisssss