Ads

Beyond the Twilight (Final Fantasy IX) Guitar Tab

Submitted: Mar 04, 2020 by Dean Reano (Last updated: Mar 06, 2020)

5
Average: 5 (2 votes)
Download | Listen
Game: Final Fantasy IX
Composer(s): Nobuo Uematsu
Style: Fingerstyle
Series: Final Fantasy

AutoScroll: Slow | Medium | Fast
 Song: Beyond the Twilight
Game: Final Fantasy IX
Composer: Nobuo Uematsu
Tab: Daugreano


   Q    Q    Q    Q      W        W        Q    Q    Q    Q      W        W
E|---------------------|--------|--------|---------------------|--------|--------|
B|-3----1----0---------|-0------|-L------|-3----1----0---------|--------|--------|
G|----------------2----|--------|--------|----------------2----|-1------|-L------|
D|-3-------------------|-2------|-L------|-3-------------------|-2------|-L------|
A|---------------------|--------|--------|---------------------|--------|--------|
E|---------------------|--------|--------|---------------------|--------|--------|

   Q    Q    Q    Q      W        W        Q    Q    Q    Q      W        W
E|---------------------|--------|--------|---------------------|--------|--------|
B|---------------------|--------|--------|---------------------|--------|--------|
G|-0---------0----1----|-2------|-L------|-0-------------------|--------|--------|
D|-0----3--------------|--------|--------|------3----2----0----|--------|--------|
A|---------------------|-4------|-L------|-1-------------------|-4------|-L------|
E|---------------------|--------|--------|---------------------|-5------|-L------|

   S  S  E   S  S  E   S  S  E   S  S  E     S  S  S  S  S  S  S  S  S  S  S  S  S  S  S  S
E|-----------------------------------------|-------------------------------------------------|
B|-------3---------1---------0-------------|----------0-----------0-----------0-----------0--|
G|----2---------0----------------------2---|-------1-----------1-----------1-----------1-----|
D|-0---------0---------0--3------0--3------|-0--2--------0--2--------0--2--------0--2--------|
A|-----------------------------------------|-------------------------------------------------|
E|-----------------------------------------|-------------------------------------------------|

   S  S  S  S  S  S  S  S  S  S  S  S  S  S  S  S    S  S  E   S  S  E   S  S  E   S  S  E
E|-------------------------------------------------|-----------------------------------------|
B|----------0-----------0-----------0-----------0--|-------3---------1---------0-------------|
G|-------1-----------1-----------1-----------1-----|----2---------0----------------------2---|
D|-0--2--------0--2--------0--2--------0--2--------|-0---------0---------0--3------0--3------|
A|-------------------------------------------------|-----------------------------------------|
E|-------------------------------------------------|-----------------------------------------|

   S  S  S  S  S  S  S  S  S  S  S  S  S  S  S  S    S  S  S  S  S  S  S  S  S  S  S  S  S  S  S  S
E|-------------------------------------------------|-------------------------------------------------|
B|----------0-----------0-----------0-----------0--|----------0-----------0-----------0-----------0--|
G|-------1-----------1-----------1-----------1-----|-------1-----------1-----------1-----------1-----|
D|-0--2--------0--2--------0--2--------0--2--------|-0--2--------0--2--------0--2--------0--2--------|
A|-------------------------------------------------|-------------------------------------------------|
E|-------------------------------------------------|-------------------------------------------------|

   S  S  E   S  S  E   S  S  E   S  S  E     S  S  S  S  S  S  S  S  S  S  S  S  S  S  S  S
E|-----------------------------------------|-------------------------------------------------|
B|-----------------------------------------|-------------------------------------------------|
G|-------0-------------------0---------1---|----------2-----------2-----------2-----------2--|
D|----0---------0--3------0---------0------|-------2-----------2-----------2-----------2-----|
A|-1---------1---------1---------1---------|-0--4--------0--4--------0--4--------0--4--------|
E|-----------------------------------------|-------------------------------------------------|

   S  S  S  S  S  S  S  S  S  S  S  S  S  S  S  S    S  S  E   S  S  E   S  S  E   S  S  E
E|-------------------------------------------------|-----------------------------------------|
B|-------------------------------------------------|-----------------------------------------|
G|----------2-----------2-----------2-----------2--|-------0---------------------------------|
D|-------2-----------2-----------2-----------2-----|----0---------0--3------0--2---------0---|
A|-0--4--------0--4--------0--4--------0--4--------|-1---------1---------1------------1------|
E|-------------------------------------------------|-------------------------------3---------|

   S  S  S  S  S  S  S  S  S  S  S  S  S  S  S  S    S  S  S  S  S  S  S  S  S  S  S  S  S  S  E
E|-------------------------------------------------|-----------------------------------------------|
B|-------------------------------------------------|-----------------------------------------------|
G|----------2-----------2-----------2-----------2--|----------2-----------2-----------2------------|
D|-------2-----------2-----------2-----------2-----|-------2-----------2-----------2-----------2---|
A|-0--4--------0--4--------0--4--------0--4--------|-0--4--------0--4--------0--4--------0--4------|
E|-------------------------------------------------|-----------------------------------------------|



Login or Register to remove this ad.