Ads

Amarant's Theme (Final Fantasy IX) Guitar Tab

Submitted: Nov 13, 2014 by Chriscendo

5
Average: 5 (4 votes)
Download | Listen
Game: Final Fantasy IX
Composer(s): Nobuo Uematsu
Style: Arrangement, Fingerstyle
Series: Final Fantasy

This song is also called Salamander's Theme

AutoScroll: Slow | Medium | Fast
An acoustic arrangement of Armarant's Theme from Final Fantasy IX.
The tab makes it look as if the offbeat bass note and the triplet melody are played in complex rhythm, for example see bar 5.
However, as the piece has a shuffle feel, thee offbeat bass note and any 3rd triplet quaver in the melody are actually played simultaneously.

Have a listen to the midi and you will see what I mean. Enjoy!

Chris
www.youtube.com/cjmmackinnon

                               Armarant's Theme                                 

      E  E  E  E  E  E  E  E     E  E  E  E  E  E  E  E   
E||---------------------------|--------------------------|
B||---------------------------|--------------------------|
G||*--------------------------|--------------------------|
D||*--------------------------|--------------------------|
A||---0--0--0--0--0--0--0--0--|--0--0--0--0--0--0--0--0--|
E||---------------------------|--------------------------|


  E  E  E  E  E  E  E  E     E  E  E  E  E  E  E  E   
--------------------------|--------------------------|
--1-----------3-----------|--0-----------1-----L--3--|
--2-----------3-----------|--0-----------2-----L--4--|
--2-----------3-----------|--2-----------3--------5--|
--0--0--0--0--0--0--0--0--|--0--0--0--0--0--0--0--0--|
--------------------------|--------------------------|


              |-3| |3|  |-3| |3|                              
  E  E  E  E  E  S S E  E  S S E     E  E  E  E  E  E  E  E   
------------------------3--2------|--------------------------|
--5-----------5--3---5---------3--|--5-----------------------|
--5-------------------------------|--5-----------------------|
--7-------------------------------|--7-----------------------|
--0--0--0--0--0----0----0----0----|--0--0--0--0--0--0--0--0--|
----------------------------------|--------------------------|


  E  E  E  E  E  E  E  E     E  E  E  E  E  E  E  E   
--------------------------|--------------------------|
--1-----------3-----------|--0-----------------------|
--2-----------3-----------|--0-----------0-----------|
--2-----------3-----------|--2-----------2-----------|
--0--0--0--0--0--0--0--0--|--0--0--0--0--2-----------|
--------------------------|--------------5--5--5--5--|


              |-3| |3|  |-3| |3|                              
  E  E  E  E  E  S S E  E  S S E     E  E  E  E  E  E  E  E   
----------------------------------|--------------------------|
------------------------1--0------|--------------------------|
--2-----------2--0---2---------0--|--2-----------------------|
--3-------------------------------|--2-----------------------|
--5-----------0----0----0----0----|--4-----------------------|
--5--5--5--5----------------------|--5--5--5--5--5--5--5--5--|


                             ^     ^                  
  E  E  E  E  E  E  E  E     E  E  E  E  E  E  E  E   
--------------------------|--------1-----------------|
-----------------------0--|--1-----3-----------------|
--------------------------|--2--2--2-----------------|
--------------------------|--2--L--0-----------------|
-----------------------0--|--0--0--0--0--0--0--0--0--|
--5--5--5--5--5--5--5-----|--------------------------|


                             ^     ^                  
  E  E  E  E  E  E  E  E     E  E  E  E  E  E  E  E   
--------------------------|--------------------------|
-----------------------0--|--1-----------------------|
--------------------------|--2--2--2-----------------|
--------------------------|--2--L--3-----------------|
--0--0--0--0--0--0--0--0--|--0--0--0--0--0--0--0--0--|
--------------------------|--------------------------|


                             ^     ^                  
  E  E  E  E  E  E  E  E     E  E  E  E  E  E  E  E   
--------------------------|--------1-----------------|
-----------------------0--|--1-----3-----------------|
--------------------------|--2--2--2-----------------|
--------------------------|--2--L--0-----------------|
--0--0--0--0--0--0--0--0--|--0--0--0--0--0--0--0--0--|
--------------------------|--------------------------|


                                 ^     ^                  
                    |-3| |3|                              
  E  E  E  E  E  E  E  S S E     E  E  E  E  E  E  E  E   
------------------------------|--------------------------|
-----------------------1---0--|--1-----------------------|
------------------------------|--2--2--2-----------------|
------------------------------|--2--L--3-----------------|
--0--0--0--0--0--0--0----0----|--0--0--0--0--0--0--0--0--|
------------------------------|--------------------------|


                                   ^                  
  E  E  E  E  E  E  E  E     E  E  E  E  E  E  E  E   
--------------------------|--------3-----------------|
-----------------------3--|--5-----5-----------------|
--------------------------|-----5--5-----------------|
--------------------------|--------5-----------------|
--0--0--0--0--0--0--0--0--|--3--3--3--3--3--3--3--3--|
--------------------------|--------------------------|


                    |-3| |3|                              
  E  E  E  E  E  E  E  S S E     E  E  E  E  E  E  E  E   
-----------------------2---0--|--2-----------------------|
------------------------------|-----3--3-----------------|
------------------------------|--------------------------|
------------------------------|--4--L--3-----------------|
--3--3--3--3--3--3--3----3----|--5--5--5--5--5--5--5--5--|
------------------------------|--------------------------|


                                   ^                  
  E  E  E  E  E  E  E  E     E  E  E  E  E  E  E  E   
-----------------------3--|--5-----8-----------------|
--------------------------|-----6--5-----------------|
--------------------------|--------5-----------------|
--------------------------|--3--3--------------------|
--5--5--5--5--5--5--5--5--|--------0--0--0--0--0--0--|
--------------------------|--------------------------|


                    |-3| |3|                              
  E  E  E  E  E  E  E  S S E     E  E  E  E  E  E  E  E   
-----------------------7---5--|--7-----------------------|
------------------------------|-----8--8-----------------|
------------------------------|--------------------------|
------------------------------|--------5-----------------|
--0--0--0--0--0--0--0----0----|--7--7--7-----------------|
------------------------------|--------0--0--0--0--0--0--|


                             ^     ^                  
  E  E  E  E  E  E  E  E     E  E  E  E  E  E  E  E   
--------------------------|--------------------------|
-----------------------0--|--1-----3-----6-----------|
--------------------------|--2--2--2-----7-----------|
--------------------------|--2--L--0-----L-----------|
--------------------------|--0--0--0--0--0--0--0--0--|
--0--0--0--0--0--0--0--0--|--------------------------|


                             ^     ^                  
  E  E  E  E  E  E  E  E     E  E  E  E  E  E  E  E   
--------------------------|--------------------------|
--3-----------0-----L--0--|--1-----------3-----------|
--4-----------0-----L-----|--2--2--2-----4-----------|
--------------------------|--2--L--3-----L-----------|
--0--0--0--0--0--0--0--0--|--0--0--0--0--0--0--0--0--|
--------------------------|--------------------------|


                             ^     ^                  
  E  E  E  E  E  E  E  E     E  E  E  E  E  E  E  E   
--------------------------|--------------------------|
--5-----------6-----L--0--|--1-----3-----6-----------|
--5-----------7-----L-----|--2--2--2-----7-----------|
--------------------------|--2--L--0-----L-----------|
--0--0--0--0--0--0--0--0--|--0--0--0--0--0--0--0--0--|
--------------------------|--------------------------|


                                 ^     ^                  
                    |-3| |3|                              
  E  E  E  E  E  E  E  S S E     E  E  E  E  E  E  E  E   
------------------------------|--------------------------|
--3-----------0-----L--1---0--|--1--L--L-----0-----------|
--4-----------0-----L---------|--2--2--2-----0-----------|
------------------------------|--2--L--3-----L-----------|
--0--0--0--0--0--0--0----0----|--0--0--0--0--0--0--0--0--|
------------------------------|--------------------------|


                                                      ^          
                               |-3| |3|  |-3| |3|                
  E  E  E  E  E  E  E  E       E  S S E  E  S S E     H          
---------------------------||----------------------|-----------||
--1-----------1------------||------------1--0------|-----------||
--2-----------2-----------*||--2--0---2---------0--|--2--------||
--L-----------L-----------*||----------------------|--2--------||
--0--0--0--0--0--0--0--0---||--0----0----0----0----|--0--------||
---------------------------||----------------------|-----------||
Login or Register to remove this ad.