Ads

Within the Giant (Final Fantasy IV) Guitar Tab

Submitted: Jan 17, 2015 by Exdeath

5
Average: 5 (1 vote)
Download | Listen
Game: Final Fantasy IV
Composer(s): Nobuo Uematsu
Style: Arrangement, Fingerstyle
Series: Final Fantasy

This song is also called Giant's Dungeon

AutoScroll: Slow | Medium | Fast
  The Giant's Dungeon                               


                         E.  S  E.  S  E.  S  E.  S   
E||-------------------|------------------------------|
B||-------------------|------------------------------|
G||-------------------|------------------------------|
D||-------------------|------------------------------|
A||-------------------|--3---4p-3---4p-3---4p-3---4h-|
E||-------------------|------------------------------|


  E.  S  E.  S  E.  S  E.  S     E.  S  E.  S  E.  S  E.  S   
------------------------------|--3---------------------------|
------------------------------|--4---------------------------|
------------------------------|--3---------------------------|
------------------------------|------------------------------|
--3---4p-3---4p-3---4p-3---4h-|--3---4p-3---4p-3---4p-3---4h-|
------------------------------|------------------------------|


  E.  S  E.  S  E.  S  E.  S    H        H           H        H         
---------------------------L-|--------------------|--------------------|
---------------------------L-|-----------3--------|--------------------|
---------------------------L-|--3--------L--------|--3-----------------|
-----------------------------|--5-----------------|--L--------5--------|
--3---4p-3---4p-3---4p-3---4-|--5-----------------|-----------L--------|
-----------------------------|--3-----------------|-----------L--------|


  W                   W                   H        H         
-------------------|-------------------|--------------------|
-------------------|-------------------|-----------3--------|
--5----------------|--L----------------|--3--------L--------|
--6----------------|--L----------------|--5-----------------|
--6----------------|--L----------------|--5-----------------|
--4----------------|--L----------------|--3-----------------|


  H        H           W                   W                 
--------------------|-------------------|-------------------|
--------------------|--4----------------|--L----------------|
--3-----------------|--5----------------|--L----------------|
--L--------5--------|--6----------------|--L----------------|
-----------L--------|--6----------------|--L----------------|
-----------L--------|--4----------------|--L----------------|


  H        H           H        H           Q    Q    Q    Q     
--------------------|--------------------|----------------------|
-----------3--------|--------------------|--6----4---------4----|
--3--------L--------|--3-----------------|--5----L----7---------|
--5-----------------|--L--------5--------|--6-------------------|
--5-----------------|-----------L--------|----------------------|
--3-----------------|-----------L--------|--4-------------------|


  H        Q    Q       H.           Q       H        Q    Q     
---------------------|---------------6----|--5--------3---------|
-----------4----6----|--8-----------------|--6--------L----6----|
--5------------------|--8------------L----|--5-------------L----|
----------------L----|--8------------L----|--3-------------L----|
---------------------|--6------------L----|---------------------|
----------------L----|--------------------|---------------------|


  W                   W                   H        E  E  E  E   
--8----------------|--7----------------|-----------------------|
--8----------------|--L----------------|--8--------L--6--4-----|
--7----------------|--L----------------|--5--------------L--5--|
--5----------------|--L----------------|--6-----------------L--|
-------------------|-------------------|-----------------------|
-------------------|-------------------|--4-----------------L--|


  Q    Q    Q    Q       H        H           H        H         
-----------------3----|-----------6--------|--------------------|
--3----L----4---------|--6-----------------|--3--------L--------|
--0----5----5----L----|--3--------L--------|-----------3--------|
--6----L----6----L----|--5--------L--------|--5--------3--------|
----------------------|--------------------|-----------5--------|
----------------------|--3--------L--------|--------------------|


  H        E  E  E  E     Q    Q    Q    Q       H        H         
-----------------------|----------------------|-----------3--------|
--4--------L--3--1-----|--3----L----4----4----|--3-----------------|
--1--------------L--1--|--1----1----5---------|--4--------L--------|
--1-----------------L--|--3---------6----L----|--5--------L--------|
-----------------------|----------------------|--------------------|
--1-----------------L--|----------------------|--3--------L--------|


  H        H           H        E  E  E  E     Q    Q    Q    Q     
--------------------|-----------------------|-----------------3----|
-----------3--------|--8--------L--6--4-----|--3----L----4---------|
--5--------4--------|--5--------------L--5--|--0----5----5----L----|
--5--------5--------|--6-----------------L--|--6----L----6----L----|
--------------------|-----------------------|----------------------|
-----------L--------|--4-----------------L--|----------------------|


  H        H           H        H           H        E  E  E  E   
-----------6--------|--------------------|-----------------------|
--6-----------------|--3--------L--------|--4--------L--3--1-----|
--3--------L--------|-----------3--------|--1--------------L--1--|
--5--------L--------|--5--------3--------|--1-----------------L--|
--------------------|-----------5--------|-----------------------|
--3--------L--------|--------------------|--1-----------------L--|


  Q    Q    Q    Q       H.           E  E     H        H         
----------------------|---------------------|--------------------|
--3----L----4----4----|--6------------9--7--|--6--------4--------|
--1----1----5---------|--6---------------L--|--4--------L--------|
--3---------6----L----|--6---------------L--|--4--------L--------|
----------------------|--8---------------L--|--6--------L--------|
----------------------|---------------------|--------------------|


  W                   W                   H        H         
--1----------------|--L----------------|--------------------|
--1----------------|--L----------------|-----------3--------|
--3----------------|--2----------------|--3--------L--------|
--3----------------|--L----------------|--5-----------------|
--3----------------|--L----------------|--5-----------------|
--1----------------|--L----------------|--3-----------------|


  H        H           W                   W                 
--------------------|-------------------|-------------------|
--------------------|-------------------|-------------------|
--3-----------------|--5----------------|--L----------------|
--L--------5--------|--6----------------|--L----------------|
-----------L--------|--6----------------|--L----------------|
-----------L--------|--4----------------|--L----------------|


  H        H           H        H           W                 
--------------------|--------------------|-------------------|
-----------3--------|--------------------|--4----------------|
--3--------L--------|--3-----------------|--5----------------|
--5-----------------|--L--------5--------|--6----------------|
--5-----------------|-----------L--------|--6----------------|
--3-----------------|-----------L--------|--4----------------|


  W                   H        H           H        H         
-------------------|--------------------|--------------------|
--L----------------|-----------3--------|--------------------|
--L----------------|--3--------L--------|--3-----------------|
--L----------------|--5-----------------|--L--------5--------|
--L----------------|--5-----------------|-----------L--------|
--L----------------|--3-----------------|-----------L--------|


  Q    Q    Q    Q       H        Q    Q       H.           Q     
----------------------|---------------------|---------------6----|
--6----4---------4----|-----------4----6----|--8-----------------|
--5----L----7---------|--5------------------|--8------------L----|
--6-------------------|----------------L----|--8------------L----|
----------------------|---------------------|--6------------L----|
--4-------------------|----------------L----|--------------------|


  H        Q    Q       W                   W                 
--5--------3---------|--8----------------|--7----------------|
--6--------L----6----|--8----------------|--L----------------|
--5-------------L----|--7----------------|--L----------------|
--3-------------L----|--5----------------|--L----------------|
---------------------|-------------------|-------------------|
---------------------|-------------------|-------------------|


  H        E  E  E  E     Q    Q    Q    Q       H        H         
-----------------------|-----------------3----|-----------6--------|
--8--------L--6--4-----|--3----L----4---------|--6-----------------|
--5--------------L--5--|--0----5----5----L----|--3--------L--------|
--6-----------------L--|--6----L----6----L----|--5--------L--------|
-----------------------|----------------------|--------------------|
--4-----------------L--|----------------------|--3--------L--------|


  H        H           H        E  E  E  E     Q    Q    Q    Q     
--------------------|-----------------------|----------------------|
--3--------L--------|--4--------L--3--1-----|--3----L----4----4----|
-----------3--------|--1--------------L--1--|--1----1----5---------|
--5--------3--------|--1-----------------L--|--3---------6----L----|
-----------5--------|-----------------------|----------------------|
--------------------|--1-----------------L--|----------------------|


  H        H           H        H           H        E  E  E  E   
-----------3--------|--------------------|-----------------------|
--3-----------------|-----------3--------|--8--------L--6--4-----|
--4--------L--------|--5--------4--------|--5--------------L--5--|
--5--------L--------|--5--------5--------|--6-----------------L--|
--------------------|--------------------|-----------------------|
--3--------L--------|-----------L--------|--4-----------------L--|


  Q    Q    Q    Q       H        H           H        H         
-----------------3----|-----------6--------|--------------------|
--3----L----4---------|--6-----------------|--3--------L--------|
--0----5----5----L----|--3--------L--------|-----------3--------|
--6----L----6----L----|--5--------L--------|--5--------3--------|
----------------------|--------------------|-----------5--------|
----------------------|--3--------L--------|--------------------|


  H        E  E  E  E     Q    Q    Q    Q       H.           E  E   
-----------------------|----------------------|---------------------|
--4--------L--3--1-----|--3----L----4----4----|--6------------9--7--|
--1--------------L--1--|--1----1----5---------|--6---------------L--|
--1-----------------L--|--3---------6----L----|--6---------------L--|
-----------------------|----------------------|--8---------------L--|
--1-----------------L--|----------------------|---------------------|


  H        H           W                   W                 
--------------------|--1----------------|--L----------------|
--6--------4--------|--1----------------|--L----------------|
--4--------L--------|--3----------------|--2----------------|
--4--------L--------|--3----------------|--L----------------|
--6--------L--------|--3----------------|--L----------------|
--------------------|--1----------------|--L----------------|


-------------------||
-------------------||
-------------------||
-------------------||
-------------------||
-------------------||
Login or Register to remove this ad.

1 comment on Within the Giant

It's pretty physically tough

5

It's pretty physically tough on my left hand but great stuff regardless! Good arrangement.