Ads

Welcome to Our Town! (Final Fantasy IV) Guitar Tab

Submitted: Apr 11, 2012 by Tabsarnack

5
Average: 5 (1 vote)
Download | Listen
Game: Final Fantasy IV
Composer(s): Nobuo Uematsu
Style: Arrangement, Fingerstyle
Series: Final Fantasy

AutoScroll: Slow | Medium | Fast
Title: Welcome To Our Town
SubTitle: Final Fantasy IV
Music: Nobuo Uematsu
Copyright: Welcome To Our Town (Final Fantasy IV)
Tabber: Tabsarnack
Tempo = 120
Pista 1

Legend
L - tied note
x - dead note
h - hammer on/pull off
b - bend
s - slide
~ - vibrato
g - ghost note
> - accentuated note
t - trill
M - palm mute
. - staccato
P - popping (bass)
S - slapping (bass)
+ - tapping
W - wide vibrato
< - fade in
w - whammy bar
= - tremolo picking
v - brush up
^ - brush down
V - pick stroke up
n - pick stroke down


E |--------------------9-----------------7--------5L---|
B |--5--------------------------5--------7-------------|
G |--6--------6--------------------------7-------------|
D |--7-----------------------------------0-------------|
A |--0-------------------------------------------------|
E |----------------------------------------------------|


--5-------------------------------------------------|
--------8--------6--------5-------------------------|
--------------------------4-----------------4L------|
--------------------------6--------6----------------|
--------------------------4-------------------------|
----------------------------------------------------|


--------------2--------------------------2----------|
-----4--5-----3-----------------3-------------------|
--4-----------2--------2----------------------------|
--------------0-------------------------------------|
----------------------------------------------------|
----------------------------------------------------|


--0-----------------3-----------------2-------------|
-----------2-----------------0-----------------2L---|
----------------------------------------------------|
----------------------------------------------------|
--4-----------------2-----------------1-------------|
----------------------------------------------------|


-----------------0--------0-------------------------|
--2-----3-------------------------------------------|
--------------------------------------------4L------|
-----------------------------------4L-------4-------|
--------------------------2L-------2L-------2-------|
--------2-------------------------------------------|


----------------------------------------------------|
-----3h-2-----3--------------------------3----------|
--4L-4L-4-----2-----------------2-------------------|
--------------4--------4----------------------------|
--------------2-------------------------------------|
----------------------------------------------------|


--------------------------------------5-------------|
--6--------5--------6--------8--------3-------------|
--5L-------5L-------5L-------5--------4--------4L---|
--7L-------7L-------7L-------7----------------------|
--5-------------------------------------------------|
--------------------------------------3-------------|


--------3-----------------1-----------------0L------|
-----------------6--------1-------------------------|
--4L----4L-------4--------0--------0L-------0-------|
----------------------------------------------------|
--------------------------3-------------------------|
----------------------------------------------------|


--0-------------------------------------------------|
-----1--------------------------0--------2----------|
-----------------------0----------------------------|
----------------------------------------------------|
--------------3-------------------------------------|
----------------------------------------------------|


----------------------------------------------------|
--3--------2--------3-------------------------------|
--2-----------------2--------2--------1-------------|
--4-----------------4-----------------2--------2L---|
--2L-------2--------------------------2-------------|
--------------------2-----------------0-------------|


--------0-------------------------------------------|
-----------------0--------3-----------------2L------|
--------------------------2-------------------------|
--2-----------------------2--------2----------------|
--------------------------0-------------------------|
----------------------------------------------------|


----------------------------------------------------|
--2--------------------------------------2----------|
-----2--------------------------0-------------------|
-----------------------2----------------------------|
--------------0-------------------------------------|
----------------------------------------------------|


--------------------------------------5-------------|
--6--------5--------6--------8--------3-------------|
--5L-------5L-------5L-------5--------4--------4L---|
--7L-------7L-------7L-------7----------------------|
--5-------------------------------------------------|
--------------------------------------3-------------|


--------3-----------------1-----------------0L------|
-----------------6--------1-------------------------|
--4L----4L-------4--------0--------0L-------0-------|
----------------------------------------------------|
--------------------------3-------------------------|
----------------------------------------------------|


--0--------------------0--------5--------8----------|
-----1----------------------------------------------|
----------------------------------------------------|
----------------------------------------------------|
--------------3-------------------------------------|
----------------------------------------------------|


--8--------7--------7-----------------5--------3L---|
--7-----------------7--------10-------3-------------|
--8-----------------8-----------------4-------------|
----------------------------------------------------|
--------------------0-------------------------------|
--7L-------7--------------------------3L-------3----|


--3-----3--------2--------7-------------------------|
--------2-----------------9--------12---------------|
--------3-----------------9-------------------------|
--------------------------------------------7L------|
----------------------------------------------------|
--------2L-------2--------0L-------0L-------0-------|


--------------12-----------------------------------|||
-----12L------12L---------------12-----------------|||
--------------------------------------------------o|||
--7-----------------------------------------------o|||
--------------------------------7------------------|||
---------------------------------------------------|||

Login or Register to remove this ad.