Welcome to Our Town! (Final Fantasy IV) Guitar Tab

Submitted: Sep 01, 2009 by (Last updated: Feb 06, 2010)

5
Average: 5 (2 votes)
Download | Listen
Game: Final Fantasy IV
Composer(s): Nobuo Uematsu
Style: Arrangement, Fingerstyle
Series: Final Fantasy

AutoScroll: Slow | Medium | Fast
                                                             Carlos H. Rodrigues
Pista 1



     Q.     Q.     E.  S    E  E.  E.  E.  E.  E     S S. S. H.            
E||---------9------7---5-|--L---------------------|-----------------------|
B||--5-------------------|-----9---7---5----------|----4--5--7------------|
G||----------------------|---------------------6--|--L--------------------|
D||----------------------|-----------------6------|----------0------------|
A||--0-------------5-----|-------------4----------|-----------------------|
E||----------------------|------------------------|-----------------------|


  E.  E.  Q.     E.  S    E  E.  E.  E.  E.  E     S S. S. H.            
----------3------2-----|------------------------|-----------------------|
--5------------------2-|--L--3---5---5----------|----3--2--3------------|
------6----------------|---------------------4--|--L--------------------|
-----------------------|-----------------4------|-----------------------|
--4-------2------1-----|-----1-------2----------|-----------------------|
-----------------------|------------------------|-----------------------|


  E.  E.  E.  E.  Q       E  E.  E.  E.  E.  E     H        E  E.  E.   
------------------5----|--L--3------------------|----------------------|
--6---5---6---8--------|---------6---6-------5--|--L--------L----------|
-----------------------|------------------------|--L-----------4---6---|
-----------------------|-----------------5------|----------------------|
--5--------------------|-------------3-------3--|--L--------L----------|
------------------3----|--L---------------------|----------------------|


                  3         3                                           
  E.  E.  E.  E.  Q.        E.  E.  E.  Q.     E     H.           Q     
-------------------------|------------------------|--------------------|
-------------------------|------5-----------------|--------------------|
--7---6---7--------------|----------4---7------6--|--L------------L----|
--------------7---6------|--L---------------------|--------------------|
-------------------------|--------------0------0--|--L------------L----|
--7-------5-------4------|--L---------------------|--------------------|


  E.  E.  E.  E.  Q       E  E.  E.  Q.     E     H        E  E.  E.   
------------------5----|--L--3-----------------|--------------5---8---|
--6---5---6---8--------|---------6---6------5--|--L--------L----------|
-----------------------|-----------------------|----------------------|
-----------------------|-----------------------|----------------------|
--5--------------------|-------------3------3--|--L--------L----------|
------------------3----|--L--------------------|----------------------|


  E.  E.  E.   E.   E.  S    E  E.  E.  E.  E.  E     S E.  Q.     Q.       
--8---7---7---------------|-------------7----------|----------------------||
--------------10---10---8-|--L--8---7--------------|----------------------||
--------------------------|-----------------4------|----4-----------------||
--------------------------|---------------------7--|--L-----6-------------||
--------------------------|------------------------|---------------7------||
--7-------7---------7-----|-----7-------0----------|----------------------||




Duration Legend
---------------
W - whole
H - half
Q - quarter
E - 8th
S - 16th
T - 32nd
X - 64th
. - note dotted
|-n-|  - n-tuplets


Tablature Legend
----------------
L - tied note
x - dead note
g - grace note
(n) - ghost note
> - accentuded note
NH - natural harmonic
AH - artificial harmonic
TH - tapped harmonic
SH - semi harmonic
PH - pitch harmonic
h - hammer on
p - pull off
b - bend
br - bendRelease
pb - preBend
pbr - preBendRelease
brb - bendReleaseBend
\n/ - tremolo bar dip
\n - tremolo bar dive
-/n - tremolo bar Release up
/n\ - tremolo bar inverted dip
/n - tremolo bar return
-\n - tremolo bar Release down
S - shift slide
s - legato slide
/ -  slide into from below or out of upwards
\ -  slide into from above or out of downwards
~ - vibrato
W - wide vibrato
tr - trill
TP - tremolo picking
T - tapping
S - slap
P - pop
< - fade in
^ - brush up
v - brush down

Login or Register to remove this ad.

4 comments on Welcome to Our Town!

This is a good tab, but the

This is a good tab, but the rhythm is not correct. It all adds up so it sounds right, but if you're trying to sight-read, the rhythm markers are very misleading. It is better not to include them at all in this case.

The beat should be a regular quarter note, not a dotted quarter, like this:

     Q       Q       E   E   E   E     E   E   E   S S H
E||----------9-------7---5----------|----------------------------------|
B||--5-----------------------9---7--|--5-----------4-5-7---------------|
G||---------------------------------|----------6-----------------------|
D||---------------------------------|------6-----------0---------------|
A||--0---------------5--------------|--4-------------------------------|
E||---------------------------------|----------------------------------|
  E   E   Q       E   E   E   E     E   E   E   S S H
----------3-------2--------------|----------------------------------|
--5-------------------2---3---5--|--5-----------3-2-3---------------|
------6--------------------------|----------4-----------------------|
---------------------------------|------4---------------------------|
--4-------2-------1-------1------|--2-------------------------------|
---------------------------------|----------------------------------|
  E   E   E   E   Q       E   E     E   E   H               E   E
------------------5-------3------|----------------------------------|
--6---5---6---8---------------6--|--6-------5-----------------------|
---------------------------------|--------------------------4---6---|
---------------------------------|------5---------------------------|
--5------------------------------|--3-------3-----------------------|
------------------3--------------|----------------------------------|
  E   E   E   E   Q       E   E     Q       H.
---------------------------------|----------------------------------|
--------------------------5------|----------------------------------|
--7---6---7-------------------4--|--7-------6-----------------------|
--------------7---6--------------|----------------------------------|
---------------------------------|--0-------0-----------------------|
--7-------5-------4--------------|----------------------------------|
  E   E   E   E   Q       E   E     Q       H               E   E
------------------5-------3------|--------------------------5---8---|
--6---5---6---8---------------6--|--6-------5-----------------------|
---------------------------------|----------------------------------|
---------------------------------|----------------------------------|
--5------------------------------|--3-------3-----------------------|
------------------3--------------|----------------------------------|
  E   E   E   E   E   E   E   E     E   E   E   E   Q       Q
--8---7---7----------------------|--7-------------------------------||
-------------10--10---8---8---7--|----------------------------------||
---------------------------------|------4-------4-------------------||
---------------------------------|----------7-------6---------------||
---------------------------------|--------------------------7-------||
--7-------7-------7-------7------|--0-------------------------------||

Yeah, i sight read this and i

Yeah, i sight read this and i felt the notes had awkward timings inbetween if i follow the rhythm markers

also, in the first bar, i

also, in the first bar, i found it easier to play the 4th fret on the high e string rather than the 9th fret on the b string

really nice

5

i don't mind the timing since i know the song, really cool tab!