Ads

Troian Beauty (Final Fantasy IV) Guitar Tab

Submitted: Aug 28, 2010 by Daugreano

0
Download | Listen
Game: Final Fantasy IV
Composer(s): Nobuo Uematsu
Style: Alternate picking, Transcription
Series: Final Fantasy

AutoScroll: Slow | Medium | Fast
Song: Troian Beauty
Game: Final Fantasy IV
Composer: Nobuo Uematsu
Tabbed by: Daugreano

Guitar: 

                                                   2x   
 |---------------------------------------------------|
   E   E   E   E   E   E     E   E   E   E   E   E     H     Q      H     Q      H     Q
E|-3-------0---------------|-------------------------|------------|------------|------------|
B|-----3-------0---3-------|-0-----------------------|-0-----3----|-1-----0----|-------1----|
G|---------------------2---|-----0---2-------0-------|------------|------------|-2----------|
D|-------------------------|-------------2-------0---|------------|------------|------------|
A|-------------------------|-------------------------|------------|------------|------------|
E|-------------------------|-------------------------|------------|------------|------------|

   H     Q      H.       H.       Q    Q    Q      H     Q      H.       H.       H.
E|------------|--------|-3------|-2----0---------|------------|--------|--------|--------|
B|-0----------|--------|--------|-----------3----|-0-----1----|-3------|-0------|-L------|
G|-------2----|-0------|--------|----------------|------------|--------|--------|--------|
D|------------|--------|--------|----------------|------------|--------|--------|--------|
A|------------|--------|--------|----------------|------------|--------|--------|--------|
E|------------|--------|--------|----------------|------------|--------|--------|--------|

   H.       Q    Q    Q      H.       H.       Q    Q    Q      Q    Q    Q      H.
E|--------|----------------|--------|--------|----------------|----------------|--------|
B|-L------|-0---------0----|--------|--------|----------------|-0---------0----|--------|
G|--------|------2---------|-0------|-L------|------0----2----|------2---------|-0------|
D|--------|----------------|--------|--------|----------------|----------------|--------|
A|--------|----------------|--------|--------|----------------|----------------|--------|
E|--------|----------------|--------|--------|----------------|----------------|--------|

   H.       H     Q      H     E   E     H     Q      H     E   E     Q    Q    Q
E|--------|------------|---------------|-------2----|-0---------0---|-1----7----5----|
B|--------|-------4----|-3-----2---3---|-4----------|-------4-------|----------------|
G|-L------|------------|---------------|------------|---------------|----------------|
D|--------|-1----------|---------------|------------|---------------|----------------|
A|--------|------------|---------------|------------|---------------|----------------|
E|--------|------------|---------------|------------|---------------|----------------|

   Q    Q    Q      H.       H.       Q    Q    Q      Q    Q    Q      H.       H. 
E|----------------|--------|--------|----------------|----------------|--------|--------|
B|-0---------0----|--------|--------|----------------|----------------|--------|--------|
G|------2---------|-0------|--------|------0----2----|-3----2----3----|--------|--------|
D|----------------|--------|--------|----------------|----------------|-1------|--------|
A|----------------|--------|--------|----------------|----------------|--------|--------|
E|----------------|--------|--------|----------------|----------------|--------|--------|

   Q    Q    Q      Q    Q    Q      Q.    E   Q      Q    Q    Q      Q.    E   Q  
E|----------------|----------------|----------------|----------------|----------------|
B|----------------|----------------|----------------|----------------|-1-----3---4----|
G|----------------|-0---------0----|-2-----0---2----|-3----2----3----|----------------|
D|------1----3----|------3---------|----------------|----------------|----------------|
A|----------------|----------------|----------------|----------------|----------------|
E|----------------|----------------|----------------|----------------|----------------|

   H.
E|--------|
B|-3------|
G|--------|
D|--------|
A|--------|
E|--------|

Then Repeat...
Login or Register to remove this ad.