Tower of Babil (Final Fantasy IV) Guitar Tab

Submitted: Nov 29, 2010 by BacardiBreezer

0
Download | Listen
Game: Final Fantasy IV
Composer(s): Nobuo Uematsu
Style: Alternate picking, Transcription
Series: Final Fantasy

AutoScroll: Slow | Medium | Fast
Tower of Bab-il
Final Fantasy 4
Composer: Nobuo Uematsu
Tabbed by: Bacardibreezer
11/29/10

e|---------------8-7----------------------11-10------|
B|-----------9-8--------------------13-12------------|
G|-------8-7------------------13-12------------------|
D|--10-9----------------13-12------------------------|
A|---------------------------------------------------|
E|---------------------------------------------------|

e|-------------------------------------------------------------------------------------|
B|--13----------11--10---------------11-10----16----------15--13----------------14-13--|
G|------12---------------------11-10--------------15----------------------14-13--------|
D|----------13-----------12-11------------------------17------------14-13--------------|
A|-------------------------------------------------------------------------------------|
E|-------------------------------------------------------------------------------------| x2

e|------------------------------------------------------------------------|
B|----------13-15---13------13----------------------13-15---13-----13-----|
G|--15---15------------15------14-----------15---15------------15-----14--|
D|--------------------------------15--------------------------------------|
A|------------------------------------------------------------------------|
E|------------------------------------------------------------------------|

e|------------------------------------------------------------------------|
B|--13---13-15-16---15-13--15---------------13---13-15-16---15-13--15-12--|
G|----------------------------15------------------------------------------|
D|-------------------------------17---------------------------------------|
A|------------------------------------------------------------------------|
E|------------------------------------------------------------------------|

Login or Register to remove this ad.