Theme Of Sorrow (Final Fantasy IV) Guitar Tab

Submitted: Sep 09, 2009 by TheDoomOfAllFires

5
Average: 5 (2 votes)
Download | Listen
Game: Final Fantasy IV
Composer(s): Nobuo Uematsu
Style: Arrangement, Fingerstyle
Series: Final Fantasy

This song is also called Cry In Sorrow

AutoScroll: Slow | Medium | Fast
Final Fantasy IV - Theme Of Sorrow
Arranged by TheDoomOfAllFires; 09/09/2009

BPM=85
Standard tuning / Capo. 1


Hope you like it ! ^^



      E  E  E  E  E  E  E  E     E  E  E  E  E  E  E  E   
E||---------------------------|--0-----------------3-----|
B||---------------------1-----|--------------------------|
G||*--2-----------------------|--------------------------|
D||*-----2--3--2-----2--3--2--|-----2--3--2-----2--3--2--|
A||---0-----------0-----------|--0-----------0-----------|
E||---------------------------|--------------------------|


  E  E  E  E  E  E  E  E     E  E  E  E  E  E  E  E   
--2-----------------------|-----------------------0--|
--------------------------|--3-----------------3-----|
--------0-----------0-----|--------0-----------0-----|
-----4-----4-----4-----4--|-----4-----4-----4-----4--|
--0-----------0-----------|--0-----------0-----------|
--------------------------|--------------------------|


  E  E  E  E  E  E  E  E     E  E  E  E  E  E  E  E   
--1-----------3-----1-----|--0-----------------------|
--------------------------|--------1-----------1-----|
--------0-----------0-----|--------------2-----------|
-----3-----3-----3-----3--|-----2--3--2-----2--3--2--|
--0-----------0-----------|--0-----------0-----------|
--------------------------|--------------------------|


  E  E  E  E  E  E  E  E     E  E  E  E  E  E  E  E   
--------------------------|--------------------------|
--3--------------------1--|--3-----------------1-----|
--------------0-----------|--------------------------|
--------0-----------0-----|--------------3-----------|
-----1-----1-----1-----1--|--------3-----------3-----|
--3-----------------------|--1--4-----4-----4-----4--|


  E  E  E  E  E  E  E  E     E  E  E  E  E  E  E  E     
--------------0--------0--|--3-----0-----8-----0------||
--1--------1--------1-----|-----------8-----8---------||
--------0--------0--------|-----5-----------------5--*||
-----2--------------------|--------------------------*||
--3-----------------------|---------------------------||
--------------------------|---------------------------||


  E  E  E  E  H          
--------------0--------||
-----------1-----------||
--------2--------------||
-----2-----------------||
--0--------------------||
-----------------------||




Duration Legend
---------------
W - whole
H - half
Q - quarter
E - 8th
S - 16th
T - 32nd
X - 64th
. - note dotted
|-n-|  - n-tuplets


Tablature Legend
----------------
L - tied note
x - dead note
g - grace note
(n) - ghost note
> - accentuded note
NH - natural harmonic
AH - artificial harmonic
TH - tapped harmonic
SH - semi harmonic
PH - pitch harmonic
h - hammer on
p - pull off
b - bend
br - bendRelease
pb - preBend
pbr - preBendRelease
brb - bendReleaseBend
\n/ - tremolo bar dip
\n - tremolo bar dive
-/n - tremolo bar Release up
/n\ - tremolo bar inverted dip
/n - tremolo bar return
-\n - tremolo bar Release down
S - shift slide
s - legato slide
/ -  slide into from below or out of upwards
\ -  slide into from above or out of downwards
~ - vibrato
W - wide vibrato
tr - trill
TP - tremolo picking
T - tapping
S - slap
P - pop
< - fade in
^ - brush up
v - brush down
Login or Register to remove this ad.

2 comments on Theme Of Sorrow

This sounds awesome. Great

5

This sounds awesome. Great job.

Nice

5

I like it.