Ads

Theme of Love (Final Fantasy IV) Guitar Tab

Submitted: Jun 18, 2010 by Daugreano

4.5
Average: 4.5 (2 votes)
Download | Listen
Game: Final Fantasy IV
Composer(s): Nobuo Uematsu
Style: Alternate picking, Transcription
Series: Final Fantasy

AutoScroll: Slow | Medium | Fast
Song: FFIV - Theme Of Love
Game: Final Fantasy IV
Composer: Nobuo Uematsu
Tabbed by: Daugreano


Guitar: 
                            
   Q    Q    Q    Q      E   E   H   Q    Q    E   E   E   E   E   E     E   E   H   Q
E|---------------------|-----0---0------|----------0-------------------|----------------|
B|------0--------------|----------------|------3-------3---1---0-------|---------3------|
G|-----------2---------|----------------|--------------------------2---|-0--------------|
D|----------------2----|-3--------------|------------------------------|-----2----------|
A|---------------------|----------------|------------------------------|----------------|
E|---------------------|----------------|------------------------------|----------------|

   Q    E   E   E   E   E   E     E   E   H   Q    Q    E   E   E   E   E   E     E   E   H   Q
E|------------------------------|----------------|------------------------------|----------------|
B|------1---3---1---0-----------|-----1---1------|------0---1---3---1---0-------|---------0------|
G|----------------------2-------|----------------|--------------------------2---|-0--------------|
D|--------------------------0---|-2--------------|------------------------------|-----2----------|
A|------------------------------|----------------|------------------------------|----------------|
E|------------------------------|----------------|------------------------------|----------------|

   H     E S  E S  E     E   E   H   Q    Q    E   E   E   E   E   E     E   E   H   Q
E|---------------------|-----0---0------|----------0-------------------|----------------|
B|-------0-------------|----------------|------3-------3---1---0-------|---------3------|
G|-2----------2--------|----------------|--------------------------2---|-0--------------|
D|-----------------2---|-3--------------|------------------------------|-----2----------|
A|---------------------|----------------|------------------------------|----------------|
E|---------------------|----------------|------------------------------|----------------|

   Q    E   E   E   E   E   E     E   E   H   Q    Q    E   E   E   E   E   E     W
E|------------------------------|----------------|------------------------------|--------|
B|------1---3---1---0-----------|-----1---1------|------0---1---3---1---0-------|--------|
G|----------------------2-------|----------------|--------------------------0---|-2------|
D|--------------------------0---|-2--------------|------------------------------|--------|
A|------------------------------|----------------|------------------------------|--------|
E|------------------------------|----------------|------------------------------|--------|

   H     E S  E S  E     Q  E  E   Q    Q      H     E   E   E   E     Q  E  E   Q    Q
E|---------------------|-12-------------12---|-----------------------|---------------------|
B|-------10---12---13--|-------8---10--------|-15--------13--12--13--|-15-------------15---|
G|---------------------|---------------------|-----------------------|-------11--12--------|
D|---------------------|---------------------|-----------------------|---------------------|
A|---------------------|---------------------|-----------------------|---------------------|
E|---------------------|---------------------|-----------------------|---------------------|

   H     E   E   E   E     H     E   E   E   E     Q  E  E   Q    Q      W        H     E S  E S  E
E|-----------------------|-----------------------|---------------------|--------|---------------------|
B|-13--------12--10--12--|-13--------12--10--12--|-13----13--12---10---|-12-----|-------0-------------|
G|-----------------------|-----------------------|---------------------|--------|------------2--------|
D|-----------------------|-----------------------|---------------------|--------|-----------------2---|
A|-----------------------|-----------------------|---------------------|--------|---------------------|
E|-----------------------|-----------------------|---------------------|--------|---------------------|

   E   E   H   Q    Q    E   E   E   E   E   E     E   E   H   Q    Q    E   E   E   E   E   E 
E|-----0---0------|----------0-------------------|----------------|------------------------------|
B|----------------|------3-------3---1---0-------|---------3------|------1---3---1---0-----------|
G|----------------|--------------------------2---|-0--------------|----------------------2-------|
D|-3--------------|------------------------------|-----2----------|--------------------------0---|
A|----------------|------------------------------|----------------|------------------------------|
E|----------------|------------------------------|----------------|------------------------------|

   E   E   H   Q    Q    E   E   E   E   E   E     W        H     E S  E S  E     Q  E  E   Q    Q
E|----------------|------------------------------|--------|---------------------|-12-------------12---|
B|-----1---1------|------0---1---3---1---0-------|--------|-------10---12---13--|-------8---10--------|
G|----------------|--------------------------0---|-2------|---------------------|---------------------|
D|-2--------------|------------------------------|--------|---------------------|---------------------|
A|----------------|------------------------------|--------|---------------------|---------------------|
E|----------------|------------------------------|--------|---------------------|---------------------|

   H     E   E   E   E     Q  E  E   Q    Q      H     E   E   E   E     H     E   E   E   E
E|-----------------------|---------------------|-----------------------|-----------------------|
B|-15--------13--12--13--|-15-------------15---|-13--------12--10--12--|-13--------12--10--12--|
G|-----------------------|-------11--12--------|-----------------------|-----------------------|
D|-----------------------|---------------------|-----------------------|-----------------------|
A|-----------------------|---------------------|-----------------------|-----------------------|
E|-----------------------|---------------------|-----------------------|-----------------------|

   Q  E  E   Q    Q      W
E|---------------------|--------|
B|-13----13--12---10---|-12-----|
G|---------------------|--------|
D|---------------------|--------|
A|---------------------|--------|
E|---------------------|--------|



Login or Register to remove this ad.

1 comment on Theme of Love

Thanks for the amazing tab!:D

Thanks for the amazing tab!:D This was my first song i learned and was able to play back my memory and im so happy it was a final fantasy song!:D