Theme of Love (Final Fantasy IV) Guitar Tab

Submitted: Oct 29, 2017 by FingerstyleGaming

5
Average: 5 (2 votes)
Download | Listen
Game: Final Fantasy IV
Composer(s): Nobuo Uematsu
Style: Arrangement, Fingerstyle
Series: Final Fantasy

AutoScroll: Slow | Medium | Fast
                                          Theme of Love                                             


Nylon Guitar
     E  E  E  E  E  E  E  E     E  E  E  E  E  E  E  E     E  E  E  E  E  E  E  E   
E||--------------------------|--------------------------|--3-----------------------|
B||--------------------------|--5-----------0--------3--|--------------0-----0--3--|
G||--------------2-----2--5--|-----0-----0--------0-----|-----------0-----0--------|
D||--------0--3-----2--------|--------0--------0--------|--------2-----------------|
A||-----0--------0-----------|--------------------------|-----2--------2-----------|
D||--0-----------------------|--5-----------0-----------|--2-----------------------|


  E  E  E  E  E  E  E  E     E  E  E  E  E  E  E  E     E  E  E  E  E  E  E  E   
--3--------------------0--|--3-----------------------|--------------------------|
--------------1-----0-----|--------------------------|--5-----------0--------3--|
-----2-----2--------------|--------------2-----2--5--|-----0-----0--------0-----|
--------2--------2--------|--------0--3-----2--------|--------0--------0--------|
--0-----------------------|-----0--------0-----------|--------------------------|
--------------2-----------|--0-----------------------|--5-----------0-----------|


  E  E  E  E  E  E  E  E     E  E  E  E  Q    Q       E  E  E  E  H         
--3-----------------------|--3---------------------|-----------------------|
-----1--------0-----0--3--|------------------------|-----5--5--L--L--------|
-----------0-----0--------|--------4-----2---------|--------------2--------|
--------2-----------------|-----------2-------2----|--3-----0--3-----------|
--3-----------------------|--0--0--4---------------|-----0-----------------|
--------------5-----------|------------------------|--0--------------------|


  E  E  E  E  E  E  E  E     E  E  E  E  H           E  E  E  E  E  E  E  E   
-----------0--------------|-----------------------|--------------------------|
--------3-----3-----0-----|--------3--L--0--------|--------1--3--1--0--------|
-----------0--4--5-----2--|--0--------0-----------|--------2-----------2-----|
--------0-----------------|-----2--2--------------|-----2-----------------0--|
-----2--------------------|-----2-----------------|--0-----------------------|
--5-----------------------|--2--------------------|--------------------------|


  E  E  E  E  H           E  E  E  E  E  E  E  E     E  E  E  E  H         
-----------------------|--------------------------|-----------------------|
-----1--1--L--L--------|--------0-----3-----0-----|--------0-----0--------|
--------------2--------|-----------5-----5-----2--|--0--------0-----------|
--2-----0--3-----------|--------0-----------------|-----2-----------------|
-----0-----------------|-----2--------------------|--3--------------------|
--0--------------------|--5-----------------------|-----------------------|


  E  E  E  E  E.  S E  E     E  E  E  E  H           E  E  E  E  E  E  E  E   
--------------------------|-----------------------|-----------0--------------|
--------------0-----------|-----5--5--L--L--------|--------3-----3-----0-----|
--2-----------0---2-L-----|--------------2--------|-----------0--4--5-----2--|
-----------2-----------2--|--3-----0--3-----------|--------0-----------------|
-----0--4-----------------|-----0-----------------|-----2--------------------|
--------------------------|--0--------------------|--5-----------------------|


  E  E  E  E  H           E  E  E  E  E  E  E  E     E  E  E  E  E  E  E  E   
-----------------------|--------------------------|--------------------------|
--------3--L--0--------|--------1--3--1--0--------|-----1--1--L--------------|
--0--------0-----------|--------2-----------2-----|--------------------------|
-----2--2--------------|-----2-----------------0--|--2-----0--3-----------4--|
-----2-----------------|--0-----------------------|-----0-----------0--3-----|
--2--------------------|--------------------------|--0-----------1-----------|


                                                        ^                     
  E  E  E  E  E  E  E  E     E  E  E  E  E  E  E  E     H        E  S E.  E   
--------------------------|--------------------------|----------------0---5--|
--------0--1--3--1--0-----|--------------------------|--------------------5--|
-----------------------0--|--2--------2--5--2--------|--2--------4--L-----5--|
--------2-----------------|--------2-----------2-----|--2--------2-----------|
-----2--------------------|-----0-----------------3--|--0--------------------|
--2-----------------------|--------------------------|-----------------------|


  S S S S S S S S S S S S S S S S    S S S S S S S S S S S S S S S S  
--0---------------0-----1-----0---|----------3-----------------------|
----------1---------1-----1-----1-|--3-----3---3-------3---3---3---3-|
--------2---2---------2-----2-----|------4-------4-------5---4---5---|
------3-------3-------------------|----5-----------5-----------------|
----0-----------0-----------------|----------------------------------|
--3---------------3-----3---------|--5---------------5---------------|


  S S S S S S S S S S S S S S S S    S S S S S S S S S S S S S S S S  
----------------------------------|----------0-----0-5-----0---0---0-|
--3-------0---------------3-------|--1-----1---1-------5-0-------0---|
--------0---0-----0-L---0---0-----|------2-------2-------------------|
------2-------4-L-----2-------2---|----2---------------------7-------|
----2-----------2---2-----------2-|--0-------------------------------|
--2---------------2---------------|----------------------------------|


  S S S S S S S S S S S S S S S S    S S S S S S S S S S S S S S S S  
----------1-----------------------|----------------------------------|
--1---------1---------0-------0---|--1-------1-L-1-L-0-L-L-L---------|
--------2-----2-----------2-------|--------2---2---2---------2-L-L-L-|
------3---------3-------3---3---3-|------4---------------4-------4---|
----0---------------0-------------|----3---------------3---3---3---3-|
--3---------------3---------------|--1---------------1-------1-------|


  S S S S S S S S S S S S S S S S    S S S S S S S S S S S S S S E     E  E  E  E  H         
------------------0---------------|---------------------------------|-----------------------|
--0-------0-----0---0-------------|----------3-------0--------------|-----5--5--L--L--------|
--------1---1---------1---1-------|--------0---0-------0---2--------|--------------2--------|
------2-------2---------2---2-----|------0-------0-------0---0---2--|--3-----0--3-----------|
----2-------------------------2---|----2-----------2-----------2----|-----0-----------------|
--2-----------------------------2-|--5---------------------------0--|--0--------------------|


  E  E  E  E  E  E  E  E     E  E  E  E  H           E  E  E  E  E  E  E  E   
-----------0--------------|-----------------------|--------------------------|
--------3-----3-----0-----|--------3--L--0--------|--------1--3--1--0--------|
-----------0--4--5-----2--|--0--------0-----------|--------2-----------2-----|
--------0-----------------|-----2--2--------------|-----2-----------------0--|
-----2--------------------|-----2-----------------|--0-----------------------|
--5-----------------------|--2--------------------|--------------------------|


  E  E  E  E  H           E  E  E  E  E  E  E  E     E  E  E  E  H         
-----------------------|--------------------------|-----------------------|
-----1--1--L--L--------|--------0-----3-----0-----|--------0-----0--------|
--------------2--------|-----------5-----5-----2--|--0--------0-----------|
--2-----0--3-----------|--------0-----------------|-----2-----------------|
-----0-----------------|-----2--------------------|--3--------------------|
--0--------------------|--5-----------------------|-----------------------|


  E  E  E  E  E.  S E  E     E  E  E  E  H           E  E  E  E  E  E  E  E   
--------------------------|-----------------------|-----------0--------------|
--------------0-----------|-----5--5--L--L--------|--------3-----3-----0-----|
--2-----------0---2-L-----|--------------2--------|-----------0--4--5-----2--|
-----------2-----------2--|--3-----0--3-----------|--------0-----------------|
-----0--4-----------------|-----0-----------------|-----2--------------------|
--------------------------|--0--------------------|--5-----------------------|


  E  E  E  E  H           E  E  E  E  E  E  E  E     E  E  E  E  E  E  E  E   
-----------------------|--------------------------|--------------------------|
--------3--L--0--------|--------1--3--1--0--------|-----1--1--L--------------|
--0--------0-----------|--------2-----------2-----|--------------------------|
-----2--2--------------|-----2-----------------0--|--2-----0--3-----------4--|
-----2-----------------|--0-----------------------|-----0-----------0--3-----|
--2--------------------|--------------------------|--0-----------1-----------|


  E  E  E  E  E  E  E  E     E  E  E  E  E  E  E  E     E  E  E  E  H         
--------------------------|--------------------------|-----------------------|
--------0--1--3--1--0-----|--------------------------|-----------------------|
-----------------------0--|--2--------2--5--2--------|-----------2--5--------|
--------2-----------------|--------2-----------2-----|--------2--------------|
-----2--------------------|-----0-----------------3--|--0--3-----------------|
--2-----------------------|--------------------------|-----------------------|

 Fade out
  E  E  E  E  E  E  E  E     E  E  E  E  E  E  E  E     E  E  E  E  E  E  E  E   
--------------------------|--------------------------|--3-----------------------|
--------------------------|--5-----------0--------3--|--------------0-----0--3--|
--------------2-----2--5--|-----0-----0--------0-----|-----------0-----0--------|
--------0--3-----2--------|--------0--------0--------|--------2-----------------|
-----0--------0-----------|--------------------------|-----2--------2-----------|
--0-----------------------|--5-----------0-----------|--2-----------------------|


  E  E  E  E  E  E  E  E     E  E  E  E  E  E  E  E     E  E  E  E  E  E  E  E   
--3--------------------0--|--3-----------------------|--------------------------|
--------------1-----0-----|--------------------------|--5-----------0--------3--|
-----2-----2--------------|--------------2-----2--5--|-----0-----0--------0-----|
--------2--------2--------|--------0--3-----2--------|--------0--------0--------|
--0-----------------------|-----0--------0-----------|--------------------------|
--------------2-----------|--0-----------------------|--5-----------0-----------|


  E  E  E  E  E  E  E  E     E  E  E  E  Q    Q      
--3-----------------------|--3---------------------||
-----1--------0-----0--3--|------------------------||
-----------0-----0--------|--------4-----2---------||
--------2-----------------|-----------2-------2----||
--3-----------------------|--0--0--4---------------||
--------------5-----------|------------------------||




Duration Legend
---------------
W - whole
H - half
Q - quarter
E - 8th
S - 16th
T - 32nd
X - 64th
. - note dotted
|-n-|  - n-tuplets


Tablature Legend
----------------
L - tied note
x - dead note
g - grace note
(n) - ghost note
> - accentuded note
NH - natural harmonic
AH - artificial harmonic
TH - tapped harmonic
SH - semi harmonic
PH - pitch harmonic
h - hammer on
p - pull off
b - bend
br - bendRelease
pb - preBend
pbr - preBendRelease
brb - bendReleaseBend
\n/ - tremolo bar dip
\n - tremolo bar dive
-/n - tremolo bar Release up
/n\ - tremolo bar inverted dip
/n - tremolo bar return
-\n - tremolo bar Release down
S - shift slide
s - legato slide
/ -  slide into from below or out of upwards
\ -  slide into from above or out of downwards
~ - vibrato
W - wide vibrato
tr - trill
TP - tremolo picking
T - tapping
S - slap
P - pop
< - fade in
^ - brush up
v - brush down
Login or Register to remove this ad.