Theme of Love (Final Fantasy IV) Guitar Tab

Submitted: Apr 12, 2012 by Tabsarnack

4.75
Average: 4.8 (4 votes)
Download | Listen
Game: Final Fantasy IV
Composer(s): Nobuo Uematsu
Style: Arrangement, Fingerstyle
Series: Final Fantasy

AutoScroll: Slow | Medium | Fast
Title: Theme of Love
SubTitle: Final Fantasy IV
Music: Nobuo Uematsu
Copyright: Theme Of Love (Final Fantasy IV)
Tabber: Arrangement by Tabsarnack
Tempo = 80
Final Fantasy IV

Parts of the arrangement are based on the "Piano Collection" version

Legend
L - tied note
x - dead note
h - hammer on/pull off
b - bend
s - slide
~ - vibrato
g - ghost note
> - accentuated note
t - trill
M - palm mute
. - staccato
P - popping (bass)
S - slapping (bass)
+ - tapping
W - wide vibrato
< - fade in
w - whammy bar
= - tremolo picking
v - brush up
^ - brush down
V - pick stroke up
n - pick stroke down

                                                                              
E |----------------|-----0--0-------------------|-----------0----------------|
B |-----0----------|----------------------------|--0-----3-----3--1--0-------|
G |--------2-------|--2-------------------------|--0--------------------2----|
D |-----------2----|--3-------------------------|--0-------------------------|
A |----------------|--5-------------------------|--2-------------------------|
E |----------------|----------------------------|----------------------------|

                               ^                          
----------------------------|----------------------------|
--------3-------------------|--1-----1--3--1--0----------|
--0-------------------------|--2-----------------2-------|
--2--2----------------------|--2--------------------0----|
--3-------------------------|--0-------------------------|
----------------------------|----------------------------|

                                                          
----------------------------|----------------------------|
--------1-------------------|--------0--1--3--1--0-------|
--------2-------------------|-----------------------2----|
--2--3----------------------|----------------------------|
----------------------------|----------------------------|
--1-------------------------|--3-------------------------|

                               ^                    
----------------------------|----------------------|
--------0-------------------|--2--------0----------|
--0-------------------------|--0-----------2-------|
--2--2----------------------|--2--------------2----|
--3-------------------------|--0-------------------|
----------------------------|----------------------|

                                                          
-----0--0-------------------|-----------0----------------|
----------------------------|--0-----3-----3--1--0-------|
--2-------------------------|--0--------------------2----|
--3-------------------------|--0-------------------------|
--5-------------------------|--2-------------------------|
----------------------------|----------------------------|

                               ^                          
----------------------------|----------------------------|
--------3-------------------|--1-----1--3--1--0----------|
--0-------------------------|--2-----------------2-------|
--2--2----------------------|--2--------------------0----|
--3-------------------------|--0-------------------------|
----------------------------|----------------------------|

                               ^                          
--------------------2-------|--3-------------------------|
-----1--1-----4--------4----|--5--5--0--1--3--1--0-------|
--2--------2--2--2----------|--4--------------------0----|
--2-------------------------|----------------------------|
----------------------------|----------------------------|
--1-----------2-------------|--0-----------0-------------|

                                                          
----------------------------|----------------------------|
----------------------------|-----------------0--1--3----|
----------------------------|-----------------0--2--4----|
--2-----------0-------------|----------------------------|
--------2--3-----3--2-------|-----------------2--0-------|
-----------------------3----|--0--------------------3----|

                                     ^           ^                
--0--3--5--12-10------------|-----1--1-----------0L------|--0----|
-----3--1--------10-6--8----|--4-----0-----------0L------|--0----|
--2--0--------7-----7-------|--2-----1-----------1L------|--1----|
----------------------------|--------2-----------0L------|--0----|
----------------------------|--------2-----------2L------|--2----|
--1--0--1-----6-----6-------|--1-----0-----------0L------|--0----|

                                                ^                          
----------------|-----0>-0>------------------|-----------0>---------------|
-----0>---------|-----------------------1----|--0-----3>----3>-1>-0>------|
--------2>------|--2>-------2--------2-------|--0--------------------2>---|
-----------2>---|--3--------------3----------|--0>-0----------------------|
----------------|--5-----------5-------------|--2-----------2--------2----|
----------------|----------------------------|----------------------------|

                               ^                          
----------------------------|----------------------------|
--------3>-------------0----|--1-----1>-3>-1>-0>---------|
--0>----0-----------0-------|--2-----------------2>------|
--2--2>----2-----2----------|--2>-2-----------------0>---|
--3-----------3-------------|--0-----------0-------------|
----------------------------|----------------------------|

                                                          
----------------------------|----------------------------|
--------1>-------------1----|--------0>-1>-3>-1>-0>------|
--------2>----------2-------|-----------------------2>---|
--2>-3>----3-----3----------|-----0----------------------|
----------------------------|--------------2--------2----|
--1-----------1-------------|--3-------------------------|

                             
----------------------------|
--------0>-------------0----|
--0>----0>----------0-------|
-----2>----2-----2----------|
--3-----------3-------------|
----------------------------|

  ^                                                                          
----------------------------------------------------------------------------|
--2-----------------------------------0>------------------------------------|
--0--------0--------------------------------------2>------------------------|
--2-----------------2-----------------------------------------2>------------|
--0>-------------------------0----------------------------------------------|
----------------------------------------------------------------------------|

                               ^                          
-----0>-0>------------------|-----------0>---------------|
-----------------------1----|--0-----3>----3>-1>-0>------|
--2--------2--------2-------|--0--------------------2>---|
--3>-------------3----------|--0--0----------------------|
--5-----------5-------------|--2>----------2--------2----|
----------------------------|----------------------------|

                               ^                          
----------------------------|----------------------------|
--------3>-------------0----|--1-----1>-3>-1>-0>---------|
--0>----0-----------0-------|--2-----------------2>------|
--2--2>----2-----2----------|--2--2-----------------0>---|
--3-----------3-------------|--0>----------0-------------|
----------------------------|----------------------------|

                               ^                          
--------------------2>------|--3-------------------------|
-----1>-1>----4--------4----|--5--5--0>-1>-3>-1>-0>------|
--2--------2--2--2----------|--4--------------------0>---|
--2>------------------------|----------------------------|
----------------------------|----------------------------|
--1-----------2>------------|--0>----------0-------------|

  ^                          
----------------------------|
--1-----------1-------------|
--2-----2--------2-----2----|
--2--2-----2--------2-------|
--0>------------------------|
----------------------------|

                                                                             
----------------------------------------------------------------------------|
--------------------1-----------------------------0-----------1-------------|
--------------------2-----------------2-----------2>----------2>------------|
-----------2--------------------------2-------------------------------------|
--0-------------------------------------------------------------------------|
-----------------------------0--------3>------------------------------------|

  ^                            ^                          
--0-----------------0>------|----------------------------|
--1--------------------1----|--3--------3----------------|
--2-----2--0>-2>------------|--4-----4--------5>-4>-5>---|
-----3-----------3----------|--0--0--------0-------------|
----------------------------|----------------------------|
--1>------------------------|--3>------------------------|

  ^                          
----------------------------|
--3-----------------3>------|
--0-----0-----0>-------0----|
--2--2-----4>----2----------|
----------------------------|
--0>------------------------|

  ^                                                                          
----------------------------------------------------------------------------|
--1-----------------------------------0-----------------------0-------------|
--2-----------------2-----------------2-----------2-----------2>------------|
--2--------2-----------------2--------------------2>------------------------|
--0>------------------------------------------------------------------------|
--------------------------------------3>------------------------------------|

  ^                            ^                          
----------------------------|----------------------------|
--1--------1-----0>----0>---|----------------------------|
--2-----2-----------2>------|--5-----2--5-----4>-2>-4>---|
--3--3--------3-------------|--4--4--------4-------------|
----------------------------|----------------------------|
--1>------------------------|--2>------------------------|

  ^                          
----------------------------|
--0-----------0-------------|
--1-----1--------1----------|
--2--2-----2--------2-------|
-----------------------2----|
--0>------------------------|

                                                                             
----------------------------------------------------------------------------|
--------------------1-----------------------------0-----------1-------------|
--------------------2-----------------2-----------2>----------2>------------|
-----------2--------------------------2-------------------------------------|
--0-------------------------------------------------------------------------|
-----------------------------0--------3>------------------------------------|

  ^                            ^                          
--0-----------------0>------|----------------------------|
--1--------------------1----|--3--------3----------------|
--2-----2--0>-2>------------|--4-----4--------5>-4>-5>---|
-----3-----------3----------|--0--0--------0-------------|
----------------------------|----------------------------|
--1>------------------------|--3>------------------------|

  ^                          
----------------------------|
--3-----------------3>------|
--0-----0-----0>-------0----|
--2--2-----4>----2----------|
----------------------------|
--0>------------------------|

  ^                                                                          
----------------------------------------------------------------------------|
--1-----------------------------------0-----------------------0-------------|
--2-----------------2-----------------2-----------2-----------2>------------|
--2--------2-----------------2--------------------2>------------------------|
--0>------------------------------------------------------------------------|
--------------------------------------3>------------------------------------|

  ^                            ^                          
----------------------------|----------------------------|
--1--------1-----0>----0>---|----------------------------|
--2-----2-----------2>------|--5-----2--5-----4>-2>-4>---|
--3--3--------3-------------|--4--4--------4-------------|
----------------------------|----------------------------|
--1>------------------------|--2>------------------------|

  ^                                                                        
----------------------------|----------------|-----0--0-------------------|
--0-----------0-------------|-----0----------|----------------------------|
--1-----1--------1----------|--------2-------|--2-------------------------|
--2--2-----2--------2-------|-----------2----|--3-------------------------|
-----------------------2----|--0-------------|--5-------------------------|
--0>------------------------|----------------|----------------------------|

                                                          
-----------0----------------|----------------------------|
--0-----3-----3--1--0-------|--------3-------------------|
--0--------------------2----|--0-------------------------|
--0-------------------------|--2--2----------------------|
--2-------------------------|--3-------------------------|
----------------------------|----------------------------|

  ^                                                       
----------------------------|----------------------------|
--1-----1--3--1--0----------|--------1-------------------|
--2-----------------2-------|--------2-------------------|
--2--------------------0----|--2--3----------------------|
--0-------------------------|----------------------------|
----------------------------|--1-------------------------|

                                       ^           ^              
----------------------------|-------|--6--4--4--6--3--1--0-------|
--------0--1--3--1--0-------|-------|--4-----------1--------3----|
-----------------------0----|-------|--5-----------2-------------|
----------------------------|--2----|--6-----------0-------------|
----------------------------|-------|----------------------------|
--3-------------------------|-------|----------------------------|

  ^                                    ^           ^              
----------------------------|-------|----------------------------|
--1--------1----------------|-------|----------------------------|
--1--1--1-------------------|-------|--3--1--1--3--0-------------|
--0-----------2-----0L------|--0----|--1-----------0--3--2--0----|
--1-----------2-------------|-------|--3-----------2-------------|
--------------3-------------|-------|--1-----------0-------------|

                               ^                          
--------------------2-------|--3-------------------------|
-----1--1-----4--------4----|--5--5--0>-1>-3>-1>-0>------|
--2--------2--2--2----------|--4--------------------0>---|
--2-------------------------|----------------------------|
----------------------------|----------------------------|
--1-----------2-------------|--0-----------0-------------|

                               ^                          
--------------------2-------|--3-------------------------|
-----1--1-----4--------4----|--5--5--0>-1>-3>-1>-0>------|
--2--------2--2--2----------|--4--------------------0>---|
--2-------------------------|----------------------------|
----------------------------|----------------------------|
--1-----------2-------------|--0-----------0-------------|

                               ^                            ^
--------------------2-------|--3-------------------------|--5----||
-----1--1-----4--------4----|--5--5--0>-1>-3>-1>-0>------|--0----||
--2--------2--2--2----------|--4--------------------0>---|--5----||
--2-------------------------|----------------------------|--2----||
----------------------------|----------------------------|--0----||
--1-----------2-------------|--0-----------0-------------|--0----||

Login or Register to remove this ad.

3 comments on Theme of Love

Awesome tab!

5

Sounds excellent! I'm noob so it's pretty hard to play for me : Challenge accepted

Thanks

Thanks. It's a good song to develop finger picking. Hard songs are good to work on because it's the way to get better. What I usually do when I work on a hard song is I work on a much easier one at the same time. It's less discouraging because I get to learn some faster while the harder one takes more time.

Really Nice

Great tab, great song, great game.