Rydia (Final Fantasy IV) Guitar Tab

Submitted: Oct 02, 2010 by diralark

5
Average: 5 (5 votes)
Download | Listen
Game: Final Fantasy IV
Composer(s): Nobuo Uematsu
Style: Arrangement, Fingerstyle
Series: Final Fantasy

AutoScroll: Slow | Medium | Fast
                   Rydia Theme         [from Final Fantasy IV]

Music by Nobuo Uematsu & Junya Nakano >> piano arr. Mark Andrews >> tab. by Diralark

Guitar (Capo 3), tempo 76
                             II                                                                     
     ^                       ^                       ^                                              
     Q    E   E  H           Q    E   E  H           Q    E   E  H           E  E  E   E  H         
E||-----------------------|-----------------------|-----------------------|------------------------|
B||-----------------------|-----------------------|-----------------------|------------------------|
G||--0-----------0--------|--2-----------0--------|--2-----------0--------|--0---------------------|
D||-----------------------|--2--------------------|--3--------------------|--0---------------------|
A||--3----2h--3-----------|-------2h--3-----------|-------2h--3-----------|--------0h--2-----------|
E||-----------------------|-----------------------|--1--------------------|-----3---------3--------|


    ^                         ^                         ^                       
    E  E  Q     Q.      E     E  E  Q     Q.      E     E  E  Q     Q     Q     
|------0-------(3)---------|-----0-------(3)------0--|--0--1-------(3)---------|
|---3-----1----------------|--3-----1----------------|--------3----------------|
|*--0-------------------0--|-------------------------|--2-----------------2----|
|*-------------------------|--2----------------------|-------------------------|
|---3----------------------|--0----------------------|--3----------------------|
|--------------------------|-------------------------|--1----------------------|


  ^                        ^                         ^                       
  E  E  E  E  Q.     E     E  E  Q     Q.      E     E  E  Q     Q.      E   
------------------------|-----0-------(3)---------|-----0-------(3)------0--|
--1--------0------------|--3-----1----------------|--3-----1----------------|
--2--0--2-----0------0--|--0-------------------0--|-------------------------|
--0---------------------|-------------------------|--2----------------------|
------------------------|--3----------------------|--0----------------------|
--3---------------------|-------------------------|-------------------------|


  ^                         ^                                                           
  E  E  Q     Q     Q       E  E  E  E  Q.     E     E  E  E   E    E    E    E    E    
--0--1-------(3)---------|------------------------|--3--5--------------------(0)-------|
--------3----------------|--1--------0------------|--------0------------(0)--(0)--(3)--|
--2-----------------2----|--2--0--2-----0---------|----------------(0)-----------------|
-------------------------|--0------------------0--|-----------(2)----------------------|
--3----------------------|------------------------|--2---------------------------------|
--1----------------------|--3---------------------|--0---------------------------------|


                                           III    I                        
  E   E    E    E    E    E    E    E      E   E  E   E    E    E   E  E   
--------------------(0)-----------------|--5---7--------------------1--0--|
--3------------(3)----------------------|---------1------------(1)--1-----|
-----(5)-----------------(5)-------(0)--|-----------------(2)-------------|
----------(7)-----------------(7)-------|--3---------(3)------------------|
--0-------------------------------------|--3------------------------------|
----------------------------------------|---------------------------------|


                                                                     III                      
                                           ^                         ^                        
  E   E    E    E    E    E    E    E      E  E  Q     Q.      E     E   E  Q     Q.      E   
--0-------------------------------------|-----0-------(3)---------|------0-------(3)------0--|
-----(3)--(0)-------(0)-----------------|--3-----1----------------|--3------1----------------|
---------------(2)-------(0)------------|--0-------------------0--|--------------------------|
------------------------------(3)--(0)--|-------------------------|--2-----------------------|
----------------------------------------|--3----------------------|--0-----------------------|
--3-------------------------------------|-------------------------|--------------------------|


  ^          ^                                               ^                                  
  Q    E  E  Q    Q       E  E  E  E   E    E    E    E      E  E  E   E    E    E    E    E    
--1----1--0------------|----------------------------------|------------------------------------|
-------------3----1----|--3--4----------------------------|--3--4--1-------(1)-----------------|
--2----------2---------|--------5--L--(1)--(0)------------|-----------(1)------------(0)--(1)--|
-----------------------|------------------------(1)--(0)--|--------3------------(3)------------|
--3--------------------|----------------------------------|-----3------------------------------|
-------------3---------|--4-------------------------------|--1---------------------------------|


  ^           ^              ^                   
  E  E  E  E  E  E  E  E     W                   
-----0--1-----0-----------|--------------------||
--3--------0-----3--1--0--|--1-----------------||
--------------------------|--0----------------*||
--------------------3-----|--2----------------*||
--3-----------------------|--3-----------------||
--------------3-----------|--------------------||

Legend
---------------
W - whole
H - half
Q - quarter
E - 8th
(n) - ghost note
h - hammer on
< - fade in

Login or Register to remove this ad.

4 comments on Rydia

Beautiful. Another great tab

Beautiful. Another great tab

ryda

5

loving it, the optional notes are def not an option 4 me

U right these "(n)" are not

U right these "(n)" are not optional notes, I use the () notation to play softer these notes, so the melody can be the main sound spreading. Well thanks for your comment c:

uwe, he he he......