Returners (Final Fantasy VI) Guitar Tab

Submitted: Aug 12, 2009 by Asa (Last updated: Aug 14, 2009)

0
Download | Listen
Game: Final Fantasy VI
Composer(s): Nobuo Uematsu
Style: Transcription
Series: Final Fantasy

AutoScroll: Slow | Medium | Fast
Final Fantasy VI - Returners
Nobuo Uematsu
FFVI OSV Disc 1 - Track 10 

Tabbed by Aj Franks
08/12/2009



                                          i. x2
e||------0-1-3-5-8-7---------10--------|-------------------------7----||
B||----3-------------10p8-10-----9~----|----6-6-6---6--6---6-6-5------||
G||*-----------------------------------|-----------------------------*||
D||*-----------------------------------|-----------------------------*||
A||------------------------------------|------------------------------||
E||------------------------------------|------------------------------||


    ii.
e|-------1------0---------1-3-5----6-5-3-5----6--8--10-----11-10-8-10--10--11--13--15~----17~----||
B|---------3--1----3----3-------6----------6-----------11----------------------------------------||
G|-------------------2---------------------------------------------------------------------------||
D|-----------------------------------------------------------------------------------------------||
A|-----------------------------------------------------------------------------------------------||
E|-----------------------------------------------------------------------------------------------||


    iii.
e|----------10-9-10----------------------------|------10-9-10-------------------4~------7~--4~--10~--7~--13~----||
B|------------------10-8------6------8---------|--------------10-8------6~----------6~--------------------------||
G|--------7--------------10-7---7~-7---8~-8----|----7--------------10-7-----7~----------------------------------||
D|---------------------------------------------|----------------------------------------------------------------||
A|---------------------------------------------|----------------------------------------------------------------||
E|---------------------------------------------|----------------------------------------------------------------||


Repeat from beginning.
Login or Register to remove this ad.