Red Wings (Final Fantasy IV) Guitar Tab

Submitted: Feb 13, 2010 by Ranulf (Last updated: Mar 04, 2010)

5
Average: 5 (3 votes)
Download | Listen
Game: Final Fantasy IV
Composer(s): Nobuo Uematsu
Style: Alternate picking, Transcription
Series: Final Fantasy

Click here for a video example.

AutoScroll: Slow | Medium | Fast
Red Wings - Final Fantasy 4
Tabbed by Ranulf
Composed by Nobuo Uematsu

e|-----------------------------------------|
B|-----------------------------------------|
G|-----------------------------------------|
D|--5--5-5-5-5-5-5--5--8-8-8-7-7-7-6-6-6---|Repeat this 2x
A|--5--5-5-5-5-5-5--5--8-8-8-7-7-7-6-6-6---|
E|--3--3-3-3-3-3-3--3--6-6-6-5-5-5-4-4-4---|

|---------------------------------------------------13-15---13----------|
|----------15-13---------13---------15------13-15-16-----------16-13-12-|
|--12--------------15-14----15-12------12-------------------------------|Repeat this 2x
|-----12----------------------------------------------------------------|
|-----------------------------------------------------------------------|
|-----------------------------------------------------------------------|

|------------------------------------------------------------------|
|------------------------------------------------------------------|
|------------------------------------------------------------------|
|--8--5--8-8--5--8--8-8-8-8--5--11--8--11-11--8--11--11-11-11-11--8|Repeat this 2x
|--8--5--8-8--5--8--8-8-8-8--5--11--8--11-11--8--11--11-11-11-11--8|
|--6--3--6-6--3--6--6-6-6-6--3--9---6--9--9---6--9---9--9--9--9---6|

|------------------|
|------------------|
|------------------|
|--6-6--6--6-6-6-6-|
|--6-6--6--6-6-6-6-|
|--4-4--4--4-4-4-4-|

And then you start from the solo again and repeat the others

Slide when necessary to make it sound more awesome
Login or Register to remove this ad.

2 comments on Red Wings

This sounds awesome!

5

This sounds awesome!

Thank you

5

Long time ago i've seen this tab and it helped me alot thankyou sir