Red Wings (Final Fantasy IV) Bass Tab

Submitted: Aug 02, 2009 by auriplane (Last updated: Aug 02, 2009)

0
Download | Listen
Game: Final Fantasy IV
Composer(s): Nobuo Uematsu
Style: Transcription
Series: Final Fantasy

AutoScroll: Slow | Medium | Fast
              Final Fantasy IV (SNES) - The Red Wings BASS TAB
                           Song by Nobuo Uematsu

                   Tabbed by auriplane ([email protected])


    Intro          4/4 time

   Q     Q     E  E  Q      Q     T T T T T T T T T
G |------------------------|------------------------|
D |------------------------|------------------------| x2
A |------------------------|------------------------|
E |3-----3-----3--3--3-----|3-----3-3-3-3-3-3-3-3-3-|


    Part A         4/4 time

   Q     Q     E  E  Q      Q     T T T T T T T T T
G |------------------------|------------------------|
D |------------------------|------------------------| x12
A |------------------------|------------------------|
E |3-----3-----3--3--3-----|3-----3-3-3-3-3-3-3-3-3-|


    Part B         7/4 time

   H.                Q     H.                  \
G |------------------------------------------|  |
D |------------------------------------------|  |
A |1-----------------------1-----------------|  |
E |------------------0-----------------------|  |
                                                | x2
   H.                Q     H.                   |
G |------------------------------------------|  |
D |------------------------------------------|  |
A |4-----------------------4-----------------|  |
E |------------------3-----------------------| /

   Q     H           H          T T T Q
G |------------------------------------------|
D |------------------------------------------|
A |------------------------------------------|  
E |4-----4-----------4----------4-4-4-4------|

    Repeat back to Part A.


    E = Eighth note
    Q = Quarter note
    H = Half note
    H. = Dotted half note

    T = Eighth note triplet
    
Login or Register to remove this ad.

2 comments on Red Wings

Redwings needs more love...

Redwings needs more love... its so epic! I don't know if I can rate this, as I don't have a bass :-S. Hopefully some of the bass players out there stumble on this.

It would be awesome if you could make a midi or even a recording of this Auri :). I bet you could program the drums, too!

Hehe don't worry about it.

Hehe don't worry about it. But, you can pretend your guitar is a bass if you play only the bottom 4 strings.