Prologue (Final Fantasy IV) Guitar Tab

Submitted: Nov 22, 2010 by BacardiBreezer

5
Average: 5 (2 votes)
Download | Listen
Game: Final Fantasy IV
Composer(s): Nobuo Uematsu
Style: Transcription
Series: Final Fantasy

AutoScroll: Slow | Medium | Fast
Prologue
Final Fantasy 4
Composer: Nobuo Uematsu
Tabbed by: Bacardibreezer
11/19/10

e|----6---6-8~---------8---8-11~-------8-11-8-11-13~----|
B|--6---6------------9---9------------------------------|
G|------------------------------------------------------|
D|------------------------------------------------------|
A|------------------------------------------------------|
E|------------------------------------------------------|

e|--------8----11---10-8--6-5-6-8--6-6-5---|
B|-----11----------------------------------|
G|--10------10-----------------------------|
D|-----------------------------------------|
A|-----------------------------------------|
E|-----------------------------------------|

e|----8-10---13--11-10-8-7-10-8---10-8-----|
B|--8------8--------------------8----------|
G|-----------------------------------------|
D|-----------------------------------------|
A|-----------------------------------------|
E|-----------------------------------------| x2

e|--15~---15-13~---------------------------10-11-13----|
B|-----------------15-16--16-15-13---12-13-------------|
G|-----------------------------------------------------|
D|-----------------------------------------------------|
A|-----------------------------------------------------|
E|-----------------------------------------------------|

e|--16~---16-15~------13--13-14-13--13-14-13--11-10-8~-|
B|-----------------16----------------------------------|
G|-----------------------------------------------------|
D|-----------------------------------------------------|
A|-----------------------------------------------------|
E|-----------------------------------------------------|
Login or Register to remove this ad.