Ads

Mystic Mysidia (Final Fantasy IV) Guitar Tab

Submitted: Aug 29, 2010 by Daugreano

4
Average: 4 (1 vote)
Download | Listen
Game: Final Fantasy IV
Composer(s): Nobuo Uematsu
Style: Alternate picking, Transcription
Series: Final Fantasy

AutoScroll: Slow | Medium | Fast
Song: Mystic Mysidia
Game: Final Fantasy Iv
Composer: Nobuo Uematsu
Tabbed by: Daugreano

Guitar: 

   H.     E   S  S    S  S  S  S  S  S  S  S  S  S  S  S  S  S  S  S    S  S  S  S  S  H     S  S  S
E|------------------|-------------------------------------------------|-------------------------3-----|
B|------------3--5--|-6-----6-----6--5--3-----------------------------|----------------------------6--|
G|------------------|----------------------6--4-----7-----6-----------|-4-----------------------------|
D|------------------|-------------------------------------------7-----|-------6-----7-----------------|
A|------------------|-------------------------------------------------|-------------------------------|
E|------------------|-------------------------------------------------|-------------------------------|

   S  S  E.   S  S  S  Q.    S  S    S  S  E.   S  S  S  E   S  S  S  S  S  S    W
E|---------------3--5--------3-----|---------------3--5------------------------|--------|
B|-5-----5----6--------5--------6--|-5-----5----6--------3---6-----------5-----|-3------|
G|---------------------------------|-------------------------------6-----------|--------|
D|---------------------------------|-------------------------------------------|--------|
A|---------------------------------|-------------------------------------------|--------|
E|---------------------------------|-------------------------------------------|--------|


Repeat the first six measures once then play this next part...

   W        Q    E   E   Q    E   E     E   E   E   E   Q    E   E     Q    E   E   Q    E   E
E|--------|-7----4-------8----5-------|-4-------4---7---5----7---8---|-10---7-------12---8-------|
B|--------|---------------------------|-----5------------------------|---------------------------|
G|--------|---------------------------|------------------------------|---------------------------|
D|--------|---------------------------|------------------------------|---------------------------|
A|--------|---------------------------|------------------------------|---------------------------|
E|--------|---------------------------|------------------------------|---------------------------|

   E   E   E   E   H       Q    E   E   Q    Q
E|-11--7---11--14--12----|------------------------|
B|-----------------------|-6----5-------4----5----|
G|-----------------------|------------------------|
D|-----------------------|------------------------|
A|-----------------------|------------------------|
E|-----------------------|------------------------|

Then repeat the whole thing...

An alternative way to repeat it is to turn the very last quarter note into an eighth note, 
then play the two first sixteenth notes inside that last eighth note instead of pausing at the beginning...
Login or Register to remove this ad.