Mt. Ordeals (Final Fantasy IV) Guitar Tab

Submitted: May 15, 2013 by Mareeck

0
Download | Listen
Game: Final Fantasy IV
Composer(s): Nobuo Uematsu
Style: Transcription
Series: Final Fantasy

AutoScroll: Slow | Medium | Fast
-----------------------------------------------------------------
Mt.Ordeals - Final Fantasy IV
-----------------------------------------------------------------
Tabbed by:Mareeck
Email:[email protected]
Tuning:Standard
Composer: Nobuo Uematsu

E|---------------------------------------------------------------|
B|---------------------------------------------------------------|
G|---------------------------------------------------------------|
D|--------------------------------12-11-9------------------------|
A|--12--12-12--12-11-9-11-12--------------12--11-12--------------|
E|---------------------------------------------------------------|

E|---------------------------------------------------------------|
B|---------------------------------------------------------------|
G|---------------------------------------------------------------|
D|---------------------------------------------------------------|
A|--12-11-9-11-12--14--12-11-------------------------------------|
E|---------------------------14-12-14----------------------------|

E|---------------------------------------------------------------|
B|---------------------------------------------------------------|
G|---------------------------------------------------------------|
D|--------------------------------12-11-9------------------------|
A|--12--12-12--12-11-9-11-12--------------12--11-12--------------|
E|---------------------------------------------------------------|

E|---------------------------------------------------------------|
B|---------------------------------------------------------------|
G|---------------------------------------------------------------|
D|---------------------------------------------------------------|
A|--12-11-9-11-12--14--12-11-------------------------------------|
E|---------------------------14-12-14----------------------------|

E|---------------------------------------------------------------|
B|---------------------------------------------------------------|
G|---------------------------------------------------------------|
D|---------------11-14-13------13-11-----12----------------------|
A|------------12---------------------14--------------------------|
E|--14-----14----------------------------------------------------|

E|---------------------------------------------------------------|
B|---------------------------------------------------------------|
G|---------------------------------------------------------------|
D|--14-12-11-----------------------------------------------------|
A|-----------12----12-14-----------------------------------------|
E|--------------14-----------------------------------------------|

E|---------------------------------------------------------------|
B|---------------------------------------------------------------|
G|---------------------------------------------------------------|
D|---------------11-14-13------13-11-----12----------------------|
A|------------12---------------------14--------------------------|
E|--14-----14----------------------------------------------------|

E|---------------------------------------------------------------|
B|---------------------------------------------------------------|
G|---------------------------------------------------------------|
D|--14-12-11-----------------------------------------------------|
A|-----------12----12-14----15-14-12-14--------------------------|
E|--------------14-----------------------------------------------|
Login or Register to remove this ad.