Mt. Ordeals (Final Fantasy IV) Guitar Tab

Submitted: Nov 08, 2010 by Ranulf

0
Download | Listen
Game: Final Fantasy IV
Composer(s): Nobuo Uematsu
Style: 2 or more instruments, Alternate picking, Arrangement, Transcription
Series: Final Fantasy

AutoScroll: Slow | Medium | Fast
Mt. Ordeals (Mountain Theme)
Final Fantasy IV
Super Nintendo
Composer: Nobuo Uematsu
Tabber: John Adams
Date: 11/3/2010


---------------
     Lead
---------------

e|-------------------------10--9-----------------------------------------------|
B|--10--10-10-10-9----9-10--------12-10--9-10---10-9----9-10---12-10-9---------|
G|-----------------11--------------------------------11----------------11-9-11-|
D|-----------------------------------------------------------------------------|
A|-----------------------------------------------------------------------------|
E|-----------------------------------------------------------------------------| x2

|-------------9-12-11---11-9-----10--12-10-9-------------|
|----------10----------------12--------------10----10-12-|
|--11---11--------------------------------------11-------|
|--------------------------------------------------------|
|--------------------------------------------------------|
|--------------------------------------------------------|

|-------------9-12-11---11-9-----10--12-10-9---------------------------|
|----------10----------------12--------------10----10-12---13-12-10-12-|
|--11---11--------------------------------------11---------------------|
|----------------------------------------------------------------------|
|----------------------------------------------------------------------|
|----------------------------------------------------------------------|

Repeat


---------------
    Rhythm
---------------

e|---------------------------------|
B|---------------------------------|
G|---------------------------------|
D|--11------11------11------11--13-|
A|--9--9-9--9--9-9--9--9-9--9---11-|
E|---------------------------------| x2

|----------------------------|
|----------------------------|
|----------------------------|
|--7------7------7------7--9-|
|--5-5-5--5-5-5--5-5-5--5--7-|
|----------------------------| x8

|-------------------------------------------------------------|
|-------------------------------------------------------------|
|-------------------------------------------------------------|
|--11------11------11------11---------------------------------|
|--9--9-9--9--9-9--9--9-9--9--9-9--9------9------9------9-----|
|----------------------------------7-7-7--7-7-7--7-7-7--7-7-7-|

|-----------------------------------------------------------------|
|-----------------------------------------------------------------|
|-----------------------------------------------------------------|
|--12--------12--------11------11------9------9------9------9-----|
|--10-10-10--10-10-10--9--9-9--9--9-9--7-7-7--7-7-7--7-7-7--7-7-7-|
|-----------------------------------------------------------------|

|-------------------------------------------------------------|
|-------------------------------------------------------------|
|-------------------------------------------------------------|
|--11------11------11------11---------------------------------|
|--9--9-9--9--9-9--9--9-9--9--9-9--9------9------9------9-----|
|----------------------------------7-7-7--7-7-7--7-7-7--7-7-7-|

|-----------------------------------------------------------------|
|-----------------------------------------------------------------|
|-----------------------------------------------------------------|
|--12--------12--------11------11------9------9------9------9-----|
|--10-10-10--10-10-10--9--9-9--9--9-9--7-7-7--7-7-7--7-7-7--7-7-7-|
|-----------------------------------------------------------------|

|-----------------------------|
|-----------------------------|
|-----------------------------|
|-----------------------------|
|--9------9------9------9-----|
|--7-7-7--7-7-7--7-7-7--7-7-7-| Then repeat the whole thing starting at the 2nd row
Login or Register to remove this ad.