Melody of Lute (Final Fantasy IV) Ukulele Tab

Submitted: Sep 11, 2012 by hazzmax (Last updated: Sep 11, 2012)

5
Average: 5 (3 votes)
Download | Listen
Game: Final Fantasy IV
Composer(s): Nobuo Uematsu
Style: Transcription
Series: Final Fantasy

AutoScroll: Slow | Medium | Fast
Title: Melody Of Lute
Game: Final Fantasy IV
Composer: Nobuo Uematsu
Tabbed by: hazzmax

Note: My first tab. Hope you guys like it!
It's fun to play and even sounds a bit lute-ish on the uke!

A|-7--------7--------|-5--------3--------|-3--------2--------|-2--------------0-|
E|-------------0-----|-------2-----0-----|-------------------|----0-------------|
C|----6--------------|----2-----------5--|----5--------2-----|-------5-----2----|
G|-------0--------0--|-------------------|-------0--------3--|----------0-------|

A|-8--------8--------|-7--------5--------|-5--------3--------|-3----------------|
E|----7--------5-----|-------7-----------|----0--------5-----|-------0-----0----|
C|-------------------|-------------5-----|-------------------|----0-----------0-|
G|-------5--------5--|----0-----------0--|--------0-------4--|----------0-------|

A|-10-------10-------|----0-----7--------|-8--------5-----7--|-8--------7-----5-|
E|-------7--------7--|-------6--------6--|-------5-----6-----|-------5----------|
C|----9--------7-----|-------------------|----5--------------|-------------0----|
G|-------------------|-10----------0-----|-------------------|----0-------------|

A|-7--------7--------|-5--------5-----2--|-3--------------2--|-3----------------|
E|-------8--------8--|-------4-----0-----|----1--------1-----|-------0----------|
C|-------------6-----|----5--------------|----------2--------|----------0-------|
G|----0--------------|-------------------|-------0-----------|----0-------------|


A|-2--------2--------|-7--------2--------|-5--------3-----2--|-3--------0-------|
E|----0--------0-----|----0--------0-----|----1--------1-----|----1-----------1-|
C|-------------------|-------------------|-------------------|------------------|
G|-------0--------0--|-------0--------0--|-------2-----------|-------0-----0----|

A|-2--------2--------|-7--------2--------|-5--------3-----2--|-3--------------5-|
E|----0--------0-----|----0--------0-----|----1--------1-----|----0-----5-------|
C|-------------------|-------------------|-------------------|-------5----------|
G|-------0--------0--|-------0--------0--|-------2-----------|-------------5----|

A|-7--------5-----3--|-2-----------2-----|-7-----8--7-----5--|-3-----0--------0-|
E|-------5-----------|-------1-----------|-------------------|----0--------0----|
C|----5--------5-----|----2-----------2--|-------------------|----------0-------|
G|-------------------|----------0--------|----0--------0-----|------------------|

A|-5-----------------|-3--------5--------|-3--------0--------|-2----------------|
E|-------4--------4--|----------------4--|-------1--------1--|----1-------------|
C|----3-----0--3-----|-------3-----3-----|----2--------2-----|----------2-------|
G|-------------------|----0--------------|-------------------|-------0----------|
Login or Register to remove this ad.

1 comment on Melody of Lute

I saw another Youtuber played

I saw another Youtuber played the last row, second column as follows:

A|-3--------5--------|
E|-------4--------4--|
C|-------------3-----|
G|----0--------------|