Main Theme (Final Fantasy IV) Bass/Guitar Tab

Submitted: Sep 11, 2011 by hashel

5
Average: 5 (1 vote)
Download | Listen
Game: Final Fantasy IV
Composer(s): Nobuo Uematsu
Style: 2 or more instruments, Transcription
Series: Final Fantasy

Click here for a video example.

AutoScroll: Slow | Medium | Fast
For the others tracks download the GP5 file :)

Melody

E |-------|-------||---------|----------|-------|----------------------------|
B |-------|-------||---------|--5--8----|--7----|-----------------------5----|
G |-------|-------||o---5----|----------|-------|--7-----------------7-------|
D |-------|-------||o7-------|----------|-------|----------------------------|
A |-------|-------||---------|----------|-------|----------------------------|
E |-------|-------||---------|----------|-------|----------------------------|


----------------|----------------|-------|----------------|-------|
--6-----8--6----|--5-------------|-------|----------------|-------|
----------------|-----5-----5----|--7L---|--7--------5----|--7L---|
----------------|--------7-------|-------|----------------|-------|
----------------|----------------|-------|----------------|-------|
----------------|----------------|-------|----------------|-------|


----------------|-------|----------------|----------|----------|-------|
----------------|-------|----------------|----------|--5--8----|--7----|
--7--------5----|--5L---|--5-------------|-----5----|----------|-------|
----------------|-------|----------------|--7-------|----------|-------|
----------------|-------|----------------|----------|----------|-------|
----------------|-------|----------------|----------|----------|-------|


----------------------------|----------------|----------------|-------|
-----------------------5----|--6-----8--6----|--5-------------|-------|
--7-----------------7-------|----------------|-----5-----5----|--7L---|
----------------------------|----------------|--------7-------|-------|
----------------------------|----------------|----------------|-------|
----------------------------|----------------|----------------|-------|


----------------|-------|----------------|-------|----------------|
----------------|-------|----------------|-------|----------------|
--7--------5----|--7L---|--7--------5----|--5L---|--5-------------|
----------------|-------|----------------|-------|----------------|
----------------|-------|----------------|-------|----------------|
----------------|-------|----------------|-------|----------------|


----------------|----------------|----------|----------------|----------------|
-----6--5--6----|--10-8--6--8----|--5-------|----------------|-----6--5--6----|
--7-------------|----------------|-----5L---|--5-------------|--7-------------|
----------------|----------------|----------|----------------|----------------|
----------------|----------------|----------|----------------|----------------|
----------------|----------------|----------|----------------|----------------|


----------------|-------|----------------|----------------|----------------|
--10-8--6--8----|--5L---|--5-------------|-----8--7--8----|--12-10-8--10---|
----------------|-------|----------------|--9-------------|----------------|
----------------|-------|----------------|----------------|----------------|
----------------|-------|----------------|----------------|----------------|
----------------|-------|----------------|----------------|----------------|


----------|----------------|----------------|----------------|----------------|
--7-------|----------------|----------------|--12-10----10---|--10-13-12-13---|
-----7L---|--7-------------|--9--12-11-12---|--------12------|----------------|
----------|----------------|----------------|----------------|----------------|
----------|----------------|----------------|----------------|----------------|
----------|----------------|----------------|----------------|----------------|


----------------|----------------------------------------------------|
--17-15-13-15---|--12L---------------------------------12----13-14---|
----------------|----------------------------------------------------|
----------------|----------------------------------------------------|
----------------|----------------------------------------------------|
----------------|----------------------------------------------------|


----------------------------------------------------|-------|------|||
--15L---------------------------------15----14-13---|--12L--|--12--|||
----------------------------------------------------|-------|-----o|||
----------------------------------------------------|-------|-----o|||
----------------------------------------------------|-------|------|||
----------------------------------------------------|-------|------|||

Harmony

E |-------|-------||------|--------5-------|-------|-------|-------|
B |-------|-------||-5L---|--5--------8----|--7----|--7----|--6----|
G |-------|-------||o-----|----------------|-------|-------|-------|
D |-------|-------||o-----|----------------|-------|-------|-------|
A |-------|-------||------|----------------|-------|-------|-------|
E |-------|-------||------|----------------|-------|-------|-------|


--------5-------|--6--10---|--8--6----|-----8----|--6-------|-------|-------|
--5--------8----|----------|----------|--9-------|-----9----|--8L---|--8----|
----------------|----------|----------|----------|----------|-------|-------|
----------------|----------|----------|----------|----------|-------|-------|
----------------|----------|----------|----------|----------|-------|-------|
----------------|----------|----------|----------|----------|-------|-------|


-------|--------5-------|-------|-------|-------|--------5-------|--6--10---|
--5L---|--5--------8----|--7----|--7----|--6----|--5--------8----|----------|
-------|----------------|-------|-------|-------|----------------|----------|
-------|----------------|-------|-------|-------|----------------|----------|
-------|----------------|-------|-------|-------|----------------|----------|
-------|----------------|-------|-------|-------|----------------|----------|


--8--6----|-----8----|--6-------|-------|-------|-------|-------|-----20---|
----------|--9-------|-----9----|--8L---|--8----|-------|--15---|--17------|
----------|----------|----------|-------|-------|--15---|-------|----------|
----------|----------|----------|-------|-------|-------|-------|----------|
----------|----------|----------|-------|-------|-------|-------|----------|
----------|----------|----------|-------|-------|-------|-------|----------|


--19-17---|-------|-------|-----20---|--19-17---|-------|-------|-----19---|
----------|-------|--15---|--17------|----------|-------|--17---|--15------|
----------|--15---|-------|----------|----------|--17---|-------|----------|
----------|-------|-------|----------|----------|-------|-------|----------|
----------|-------|-------|----------|----------|-------|-------|----------|
----------|-------|-------|----------|----------|-------|-------|----------|


--17------|-------|-------|-------|-------|-------|-------|-------|------|||
-----19---|-------|--17---|--18---|--17---|--17---|--15---|--17L--|--17--|||
----------|--17---|-------|-------|-------|-------|-------|-------|-----o|||
----------|-------|-------|-------|-------|-------|-------|-------|-----o|||
----------|-------|-------|-------|-------|-------|-------|-------|------|||
----------|-------|-------|-------|-------|-------|-------|-------|------|||

Bass Line

G |----------------|----------------||---------------|----------------|
D |----------------|----------------||o--------------|----------------|
A |--0--0--0--0----|--0--0--0--0----||o0--0--0--0----|--0--0--0--0----|
E |----------------|----------------||---------------|----------------|


----------------|----------------|----------------|----------------|
--0--0--0--0----|--0--0--0--0----|----------------|----------------|
----------------|----------------|----------------|--0--0--0--0----|
----------------|----------------|--1--1--1--3----|----------------|


----------------|----------------|----------------|----------------|
----------------|----------------|----------------|----------------|
----------------|----------------|----------------|----------------|
--3--3--3--3----|--3--3--3--3----|--1--1--1--1----|--1--1--1--1----|


----------------|----------------|----------------|----------------|
----------------|----------------|----------------|----------------|
--3--3--3--3----|--3--3--3--3----|--0--0--0--0----|--0--0--0--0----|
----------------|----------------|----------------|----------------|


----------------|----------------|----------------|----------------|
--0--0--0--0----|--0--0--0--0----|----------------|----------------|
----------------|----------------|----------------|--0--0--0--0----|
----------------|----------------|--1--1--1--3----|----------------|


----------------|----------------|----------------|----------------|
----------------|----------------|----------------|----------------|
----------------|----------------|----------------|----------------|
--3--3--3--3----|--3--3--3--3----|--1--1--1--1----|--1--1--1--1----|


----------------|----------------|----------------|-------|----------------|
----------------|----------------|----------------|-------|----------------|
--3--3--3--3----|--3--3--3--3----|--1-------------|-------|--0-------------|
----------------|----------------|----------------|-------|----------------|


-------|----------------|-------|----------------|-------|----------------|
-------|----------------|-------|----------------|-------|----------------|
-------|--1-------------|-------|--0-------------|-------|--3-------------|
-------|----------------|-------|----------------|-------|----------------|


-------|----------------|-------|----------------|-------|----------------|
-------|----------------|-------|----------------|-------|----------------|
-------|--2-------------|-------|--3-------------|-------|----------------|
-------|----------------|-------|----------------|-------|--1-------------|


-------|----------------|----------------|----------------|---------------|||
-------|----------------|----------------|----------------|--------------o|||
-------|----------------|----------------|----------------|--------------o|||
-------|--0-------------|--3-------------|--0--0--0--0----|--0--0--0--0---|||
Login or Register to remove this ad.