The Lunarians (Final Fantasy IV) Guitar Tab

Submitted: Jun 18, 2010 by Daugreano (Last updated: Jun 19, 2010)

0
Download | Listen
Game: Final Fantasy IV
Composer(s): Nobuo Uematsu
Style: Alternate picking, Transcription
Series: Final Fantasy

AutoScroll: Slow | Medium | Fast
Song: The Lunarians
Game: Final Fantasy IV
Composer: Nobuo Uematsu
Tabbed by: Daugreano


Guitar:
                                                             2x
   S  S  S  S  S  S  S  S  S  S  S  S  S  s  S  S  S  S  S  S    
E|-------------------------------------------------------------|
B|-3--1-----------1--3--1--------3--1-----------1--3--1--------|
G|-------3--0--3-----------3--0--------3--0--3-----------3--0--|
D|-------------------------------------------------------------|
A|-------------------------------------------------------------|
E|-------------------------------------------------------------|


                                                             2x
    S  S  S  S  S  S  S  S  S  S  S  S  S  S  S  S  S  S  S  S
E|-------------------------------------------------------------|
B|-3--1-----------1--3--1--------3--1-----------1--3--1--------|
G|-------2-----2-----------2-----------2-----2-----------2-----|
D|----------3-----------------3-----------3-----------------3--|
A|-------------------------------------------------------------|
E|-------------------------------------------------------------|


                                                             2x 
   S  S  S  S  S  S  S  S  S  S  S  S  S  s  S  S  S  S  S  S    
E|-------------------------------------------------------------|
B|-3--1-----------1--3--1--------3--1-----------1--3--1--------|
G|-------3--0--3-----------3--0--------3--0--3-----------3--0--|
D|-------------------------------------------------------------|
A|-------------------------------------------------------------|
E|-------------------------------------------------------------|

                                                             2x
   S  S  S  S  S  S  S  S  S  S  S  S  S  S  S  S  S  S  S  S
E|-------------------------------------------------------------|
B|-3--1-----------1--3--1--------3--1-----------1--3--1--------|
G|-------2-----2-----------2-----------2-----2-----------2-----|
D|----------3-----------------3-----------3-----------------3--|
A|-------------------------------------------------------------|
E|-------------------------------------------------------------|


                                                             2x 
   S  S  S  S  S  S  S  S  S  S  S  S  S  s  S  S  S  S  S  S    
E|-------------------------------------------------------------|
B|-2--1-----------1--2--1--------2--1-----------1--2--1--------|
G|-------1-----1-----------1-----------1-----1-----------1-----|
D|----------3-----------------3-----------3-----------------3--|
A|-------------------------------------------------------------|
E|-------------------------------------------------------------|

                                                             2x
   S  S  S  S  S  S  S  S  S  S  S  S  S  S  S  S  S  S  S  S
E|-------------------------------------------------------------|
B|-1--0-----------0--1--0--------1--0-----------0--1--0--------|
G|-------0-----0-----------0-----------0-----0-----------0-----|
D|----------2-----------------2-----------2-----------------2--|
A|-------------------------------------------------------------|
E|-------------------------------------------------------------|

                                                             2x 
   S  S  S  S  S  S  S  S  S  S  S  S  S  s  S  S  S  S  S  S    
E|-------------------------------------------------------------|
B|-3--1-----------1--3--1--------3--1-----------1--3--1--------|
G|-------2-----2-----------2-----------2-----2-----------2-----|
D|----------3-----------------3-----------3-----------------3--|
A|-------------------------------------------------------------|
E|-------------------------------------------------------------|

                                                             2x
   S  S  S  S  S  S  S  S  S  S  S  S  S  S  S  S  S  S  S  S
E|-------------------------------------------------------------|
B|-3--0-----------0--3--0--------3--0-----------0--3--0--------|
G|-------0-----0-----------0-----------0-----0-----------0-----|
D|----------3-----------------3-----------3-----------------3--|
A|-------------------------------------------------------------|
E|-------------------------------------------------------------|


Login or Register to remove this ad.