Ads

Kingdom Baron (Final Fantasy IV) Guitar Tab

Submitted: Feb 16, 2011 by BacardiBreezer

0
Download | Listen
Game: Final Fantasy IV
Composer(s): Nobuo Uematsu
Style: 2 or more instruments, Transcription
Series: Final Fantasy

AutoScroll: Slow | Medium | Fast
Kingdom Baron
Final Fantasy 4
Composer: Nobuo Uematsu
Tabbed by: Bacardibreezer
2/15/11

Guitar 1 - Strings

e|--------------13-----------|------------------------------------------|
B|-14--------------13--------|------------------------------------------|
G|----13--------------12-----|------------------------------------------|
D|-------14--------------12--|---10--11-13-11-10-----10-------------10--|
A|----------13---------------|---------------------------13-11-13-------|
E|---------------------------|------------------------------------------| x2

e|------------16-----18-----19--|-------------L---19~-------------------|
B|-----18-----------------------|---------------------------------------|
G|--17-----17-----17-----17-----|---------------------------------------|
D|------------------------------|---------------------------------------|
A|------------------------------|---------------------------------------|
E|------------------------------|---------------------------------------| 

e|------------16-----18-----19--|-------------L---19~-------------------|
B|-----18-----------------------|---------------------------------------|
G|--17-----17-----17-----17-----|---------------------------------------|
D|------------------------------|---------------------------------------|
A|------------------------------|---------------------------------------|
E|------------------------------|---------------------------------------|

e|------------------------|---------------------------------------------|
B|------------------------|---------------------------------------------|
G|------------------------|----9-------9-12-11-9------9-------9-12-11-9-|
D|------------------------|------10-12-----------10-----10-12-----------|
A|------------------------|---------------------------------------------|
E|------------------------|---------------------------------------------| x2

Guitar 2 - Trumpet

e|------------|--------------|--------------|-------------|
B|------------|--------------|--------------|-------------|
G|------------|--------------|--------------|-------------|
D|------------|--------------|--------------|-------------|
A|------------|--------------|--------------|-------------|
E|------------|--------------|--------------|-------------|

e|-----------------------------------|----------------------------------|
B|-----------------------------------|----------------------------------|
G|--13--12--13-----13--12--13--------|----------------------------------|
D|-------------15-------------15--14-|---8-9-11-9---8-9-11-9---8-9-11---|
A|--------------------------------14-|----------------------------------|
E|-----------------------------------|----------------------------------|

e|-----------------------------------|----------------------------------|
B|-----------------------------------|----------------------------------|
G|--13--12--13-----13--12--13--------|----------------------------------|
D|-------------15-------------15--14-|---8-9-11-9---8-9-11-9---8-9-11---|
A|--------------------------------14-|----------------------------------|
E|-----------------------------------|----------------------------------|

e|--10--10-10-10-9-10-----9-10-9-12---10--------|-----------------------|
B|---------------------12----------------12-----|-----------------------|
G|----------------------------------------------|----9--11---12--11-----|
D|----------------------------------------------|-----------------------|
A|----------------------------------------------|-----------------------|
E|----------------------------------------------|-----------------------| x2
Login or Register to remove this ad.