The Final Battle (Final Fantasy IV) Guitar Tab

Submitted: Jun 21, 2009 by auriplane

5
Average: 5 (3 votes)
Download | Listen
Game: Final Fantasy IV
Composer(s): Nobuo Uematsu
Style: 2 or more instruments, Transcription
Series: Final Fantasy

AutoScroll: Slow | Medium | Fast
      Final Fantasy IV (SNES) - The Final Battle GUITAR + BASS TAB
                          Song by Nobuo Uematsu

                 Tabbed by auriplane ([email protected])

This song has two trumpets, two strings parts, an organ part, electric
bass, and drums.  All but drums and bass have been put on guitar as
follows:

    First guitar  - Trumpet (melody)
    Second guitar - Trumpet (harmony)
    Third guitar  - Strings (higher)
    Fourth guitar - Strings (lower)
    Fifth guitar  - Organ

I included a drum tab, but not a bass tab because I already made one
separately (which can be found on GameTabs).  The GP5 I made doesn't
have drums because I don't know how to enter in a drum tab into Tux
Guitar.  Hope that's ok!

Anyway, this is just a transcription, so the purpose is to get the 
exact notes right--what you do with them is up to you :-)

Standard tuning.



                 First Guitar - Trumpet Part (Melody)

    Part A (6 measures)

e |--------------------------------|--------------------------------|
B |--------------------------------|--------------------------------|
G |7-------------------------------|----------------8---------------|
D |----------------9---------------|10------------------------------|
A |--------------------------------|--------------------------------|
E |--------------------------------|--------------------------------|

e |--------------------------------|--------------------------------|
B |--------------------------------|----------------8---------------|
G |7---------------10--------------|8-------------------------------|
D |--------------------------------|--------------------------------|
A |--------------------------------|--------------------------------|
E |--------------------------------|--------------------------------|

e |--------------------------------|11----------13--11--15--14--17--|
B |------------11------13--11--15--|----13--15----------------------|
G |14--11--12------14--------------|--------------------------------|
D |--------------------------------|--------------------------------|
A |--------------------------------|--------------------------------|
E |--------------------------------|--------------------------------|

    Part B  (Repeat 2x)

e |15------------------------------|L-------------------------------|
B |--------------------------------|--------------------------------|
G |--------------------------------|--------------------------------|
D |--------------------------------|--------------------------------|
A |--------------------------------|--------------------------------|
E |--------------------------------|--------------------------------|

e |15----15----15--15----15----15--|15----15----15--15----15----15--|
B |--------------------------------|--------------------------------|
G |--------------------------------|--------------------------------|
D |--------------------------------|--------------------------------|
A |--------------------------------|--------------------------------|
E |--------------------------------|--------------------------------|

    Part C

e |--------------------------------|--------------------------------|
B |----------------15------13------|--------------------------------|
G |14------------------------------|15------14------12------15------|
D |--------------------------------|--------------------------------|
A |--------------------------------|--------------------------------|
E |--------------------------------|--------------------------------|

e |----------------13--------------|--------------------------------|
B |13----------------------16------|15------------------------------|
G |--------------------------------|--------------------------------|
D |--------------------------------|--------------------------------|
A |--------------------------------|--------------------------------|
E |--------------------------------|--------------------------------|

e |--------------------------------|15--------------18--------------|
B |16------------------13--15--16--|--------------------------------|
G |--------------------------------|--------------------------------|
D |--------------------------------|--------------------------------|
A |--------------------------------|--------------------------------|
E |--------------------------------|--------------------------------|

e |17------------------------------|L-------------------------------|
B |--------------------------------|--------------------------------|
G |--------------------------------|--------------------------------|
D |--------------------------------|--------------------------------|
A |--------------------------------|--------------------------------|
E |--------------------------------|--------------------------------|

    Play Part B again before continuing.

    Part D

e |--------------------------------|13------------------------------|
B |--------------------------------|--------------------------------|
G |--------------------------------|--------------------------------|
D |--------------------------------|--------------------------------|
A |--------------------------------|--------------------------------|
E |--------------------------------|--------------------------------|

e |L-------------------------------|L-------------------------------|
B |--------------------------------|--------------------------------|
G |--------------------------------|--------------------------------|
D |--------------------------------|--------------------------------|
A |--------------------------------|--------------------------------|
E |--------------------------------|--------------------------------|

e |--------------------------------|----------------13--------------|
B |--------------------------------|15------------------------------|
G |12--------------15--------------|--------------------------------|
D |--------------------------------|--------------------------------|
A |--------------------------------|--------------------------------|
E |--------------------------------|--------------------------------|

e |12------------------------------|L-------------------------------|
B |--------------------------------|--------------------------------|
G |--------------------------------|--------------------------------|
D |--------------------------------|--------------------------------|
A |--------------------------------|--------------------------------|
E |--------------------------------|--------------------------------|

e |--------------------------------|12--------------15--------------|
B |----------------13--------------|--------------------------------|
G |14------------------------------|--------------------------------|
D |--------------------------------|--------------------------------|
A |--------------------------------|--------------------------------|
E |--------------------------------|--------------------------------|

e |14------------------------------|L-------------------------------|
B |--------------------------------|--------------------------------|
G |--------------------------------|--------------------------------|
D |--------------------------------|--------------------------------|
A |--------------------------------|--------------------------------|
E |--------------------------------|--------------------------------|

    Part E - Play twice
                                                            slide up
e |--------------------------------|------------------------7s8s9s10s
B |7---------------7---------------|7---------------7---------------|
G |--------------------------------|--------------------------------|
D |--------------------------------|--------------------------------|
A |--------------------------------|--------------------------------|
E |--------------------------------|--------------------------------|

e |12--10--12--14--15------14------|12------10--------------10--12--|
B |--------------------------------|------------13------13----------|
G |--------------------------------|--------------------------------|
D |--------------------------------|--------------------------------|
A |--------------------------------|--------------------------------|
E |--------------------------------|--------------------------------|

    Part F

e |--------------------------------|--------------------------------|
B |--------------------------------|--------------------------------|
G |12--------------12--------------|12--------------12--------------|
D |--------------------------------|--------------------------------|
A |--------------------------------|--------------------------------|
E |--------------------------------|--------------------------------|

e |15--14--15--17--19------17--15--|L-------------------------------|
B |--------------------------------|--------------------------------|
G |--------------------------------|--------------------------------|
D |--------------------------------|--------------------------------|
A |--------------------------------|--------------------------------|
E |--------------------------------|--------------------------------|

e |15--14--15--17--19------17--15--|L-------------------------------|
B |--------------------------------|--------------------------------|
G |--------------------------------|--------------------------------|
D |--------------------------------|--------------------------------|
A |--------------------------------|--------------------------------|
E |--------------------------------|--------------------------------|

e |--------19------17------15------|--------------------------------|
B |--------------------------------|18------17------15--------------|
G |--------------------------------|------------------------17------|
D |--------------------------------|--------------------------------|
A |--------------------------------|--------------------------------|
E |--------------------------------|--------------------------------|

    Part G (12 measures of 2/4 time)

e |19--------------|----------------|19--------------|
B |----------------|----------------|----------------|
G |----------------|16--------------|--------16------|
D |----------------|----------------|----------------|
A |----------------|----------------|----------------|
E |----------------|----------------|----------------|

e |20--------------|----------------|20--------------|
B |----------------|----------------|----------------|
G |----------------|17--------------|--------17------|
D |----------------|----------------|----------------|
A |----------------|----------------|----------------|
E |----------------|----------------|----------------|

e |19------19------|----------------|19--------------|
B |----------------|----------------|----------------|
G |----------------|16------16------|--------16------|
D |----------------|----------------|----------------|
A |----------------|----------------|----------------|
E |----------------|----------------|----------------|

e |20------20------|----------------|20--------------|
B |----------------|----------------|----------------|
G |----------------|17------17------|--------17------|
D |----------------|----------------|----------------|
A |----------------|----------------|----------------|
E |----------------|----------------|----------------|

    Part H (9 measures of 2/4 time, with triplets)

            T  T  T                      T  T  T
e |------------------|------------------|------------------|
B |11-------------11-|12-------13-------|10-------11-------|
G |------------11----|------------------|---12-10----------|
D |---------11-------|------------------|------------------|
A |------------------|------------------|------------------|
E |------------------|------------------|------------------|

            T  T  T            T  T  T
e |------------------|------------------|
B |8--------------8--|10----------------|
G |------------8-----|---------10-8--6--(7)
D |---------8--------|------------------|
A |------------------|------------------|
E |------------------|------------------|

    Part I - Eight measures of rest before you repeat back.

  (The last note in parens really feels like you should play
  it, but the strings play that one.  If you're just playing
  the melody though I'd add it ;-) 



                 Second Guitar - Trumpet Part (Harmony)

    Part A (6 measures)

e |--------------------------------|--------------------------------|
B |--------------------------------|--------------------------------|
G |--------------------------------|--------------------------------|
D |9-------------------------------|----------------10--------------|
A |----------------11--------------|12------------------------------|
E |--------------------------------|--------------------------------|

e |--------------------------------|--------------------------------|
B |--------------------------------|--------------------------------|
G |--------------------------------|----------------8---------------|
D |9---------------12--------------|10------------------------------|
A |--------------------------------|--------------------------------|
E |--------------------------------|--------------------------------|

e |--------------------------------|8-----------10--8---11--10--14--|
B |------------8-------10--9---11--|----10--11----------------------|
G |11--8---9-------11--------------|--------------------------------|
D |--------------------------------|--------------------------------|
A |--------------------------------|--------------------------------|
E |--------------------------------|--------------------------------|

    Part B  (Repeat 2x)

e |12------------------------------|L-------------------------------|
B |--------------------------------|--------------------------------|
G |--------------------------------|--------------------------------|
D |--------------------------------|--------------------------------|
A |--------------------------------|--------------------------------|
E |--------------------------------|--------------------------------|

e |12----12----12--12----12----12--|12----12----12--12----12----12--|
B |--------------------------------|--------------------------------|
G |--------------------------------|--------------------------------|
D |--------------------------------|--------------------------------|
A |--------------------------------|--------------------------------|
E |--------------------------------|--------------------------------|

e |12------------------------------|L-------------------------------|
B |--------------------------------|--------------------------------|
G |--------------------------------|--------------------------------|
D |--------------------------------|--------------------------------|
A |--------------------------------|--------------------------------|
E |--------------------------------|--------------------------------|

e |12----12----12--12----12----12--|12----12----12--12----12----12--|
B |--------------------------------|--------------------------------|
G |--------------------------------|--------------------------------|
D |--------------------------------|--------------------------------|
A |--------------------------------|--------------------------------|
E |--------------------------------|--------------------------------|

    Part C

e |--------------------------------|--------------------------------|
B |--------------------------------|--------------------------------|
G |--------------------------------|--------------------------------|
D |0-------------------------------|0-------------------------------|
A |--------------------------------|--------------------------------|
E |--------------------------------|--------------------------------|

e |--------------------------------|--------------------------------|
B |--------------------------------|--------------------------------|
G |--------------------------------|--------------------------------|
D |3-------------------------------|3-------------------------------|
A |--------------------------------|--------------------------------|
E |--------------------------------|--------------------------------|

e |--------------------------------|--------------------------------|
B |--------------------------------|--------------------------------|
G |--------------------------------|--------------------------------|
D |1-------------------------------|1-------------------------------|
A |--------------------------------|--------------------------------|
E |--------------------------------|--------------------------------|

e |--------------------------------|--------------------------------|
B |--------------------------------|--------------------------------|
G |--------------------------------|--------------------------------|
D |0-------------------------------|L-------------------------------|
A |--------------------------------|--------------------------------|
E |--------------------------------|--------------------------------|

    Play Part B again before continuing.

    Part D

e |--------------------------------|--------------------------------|
B |----------------13--------------|L-------------------------------|
G |--------------------------------|--------------------------------|
D |--------------------------------|--------------------------------|
A |--------------------------------|--------------------------------|
E |--------------------------------|--------------------------------|

e |--------------------------------|--------------------------------|
B |L-------------------------------|L-------------------------------|
G |--------------------------------|--------------------------------|
D |--------------------------------|--------------------------------|
A |--------------------------------|--------------------------------|
E |--------------------------------|--------------------------------|

e |--------------------------------|--------------------------------|
B |--------------------------------|--------------------------------|
G |--------------------------------|--------------------------------|
D |12----------12------------------|12----------12----------10--12--|
A |--------------------------------|--------------------13----------|
E |--------------------------------|--------------------------------|

e |--------------------------------|--------------------------------|
B |--------------------------------|--------------------------------|
G |--------------------------------|--------------------------------|
D |11------------------------------|L-------------------------------|
A |--------------------------------|--------------------------------|
E |--------------------------------|--------------------------------|

e |--------------------------------|--------------------------------|
B |--------------------------------|--------------------------------|
G |9-----------9-------------------|9-----------9-----------7---9---|
D |--------------------------------|--------------------10----------|
A |--------------------------------|--------------------------------|
E |--------------------------------|--------------------------------|

e |--------------------------------|--------------------------------|
B |--------------------------------|--------------------------------|
G |8-------------------------------|L-------------------------------|
D |--------------------------------|--------------------------------|
A |--------------------------------|--------------------------------|
E |--------------------------------|--------------------------------|

    Part E - Play twice
                                                            slide up
e |--------------------------------|--------------------------------|
B |0---------------0---------------|0---------------0-------8s9s10s-|
G |--------------------------------|--------------------------------|
D |--------------------------------|--------------------------------|
A |--------------------------------|--------------------------------|
E |--------------------------------|--------------------------------|

e |----------------12--------------|--------------------------------|
B |13--12--13--15----------15------|13------12--------------12--13--|
G |--------------------------------|------------14------14----------|
D |--------------------------------|--------------------------------|
A |--------------------------------|--------------------------------|
E |--------------------------------|--------------------------------|

    Part F

e |0---------------0---------------|0---------------0---------------|
B |--------------------------------|--------------------------------|
G |--------------------------------|--------------------------------|
D |--------------------------------|--------------------------------|
A |--------------------------------|--------------------------------|
E |--------------------------------|--------------------------------|

e |12------12--14--15------14--12--|L-------------------------------|
B |----15--------------------------|--------------------------------|
G |--------------------------------|--------------------------------|
D |--------------------------------|--------------------------------|
A |--------------------------------|--------------------------------|
E |--------------------------------|--------------------------------|

e |12------12--14--15------14--12--|L-------------------------------|
B |----15--------------------------|--------------------------------|
G |--------------------------------|--------------------------------|
D |--------------------------------|--------------------------------|
A |--------------------------------|--------------------------------|
E |--------------------------------|--------------------------------|

e |--------13------12------10------|--------------------------------|
B |--------------------------------|13------12------10--------------|
G |--------------------------------|------------------------12------|
D |--------------------------------|--------------------------------|
A |--------------------------------|--------------------------------|
E |--------------------------------|--------------------------------|

    Part G (12 measures of 2/4 time)

e |14--------------|----------------|14--------------|
B |----------------|----------------|----------------|
G |----------------|11--------------|--------11------|
D |----------------|----------------|----------------|
A |----------------|----------------|----------------|
E |----------------|----------------|----------------|

e |15--------------|----------------|15--------------|
B |----------------|----------------|----------------|
G |----------------|12--------------|--------12------|
D |----------------|----------------|----------------|
A |----------------|----------------|----------------|
E |----------------|----------------|----------------|

e |----------------|----------------|----------------|
B |----------------|----------------|----------------|
G |11------11------|----------------|11--------------|
D |----------------|----------------|----------------|
A |----------------|9-------9-------|--------9-------|
E |----------------|----------------|----------------|

e |15------15------|----------------|15--------------|
B |----------------|----------------|----------------|
G |----------------|12------12------|--------12------|
D |----------------|----------------|----------------|
A |----------------|----------------|----------------|
E |----------------|----------------|----------------|

    Part H (9 measures of 2/4 time, with triplets)

e |------------------|------------------|------------------|
B |------------------|------------------|------------------|
G |11----------------|12-------12-------|---------10-------|
D |------------------|------------------|------------------|
A |------------------|------------------|------------------|
E |------------------|------------------|------------------|

e |------------------|------------------|
B |------------------|------------------|
G |------------------|10----------------|
D |13----------------|------------------|
A |------------------|------------------|
E |------------------|------------------|

    Part I - Eight measures of rest before you repeat back.







                  Third Guitar - Strings Part (Upper)

    Part A (6 measures)

e |--------------------------------|--------------------------------|
B |--------------------------------|--------------------------------|
G |--------------------------------|--------------------------------|
D |--------------------------------|--------------------------------|
A |5-------------------------------|----------------6---------------|
E |----------------7---------------|8-------------------------------|

e |--------------------------------|--------------------------------|
B |--------------------------------|--------------------------------|
G |--------------------------------|--------------------------------|
D |--------------------------------|----------------5---------------|
A |5---------------8---------------|6-------------------------------|
E |--------------------------------|--------------------------------|

e |--------------------------------|----------------------------5---|
B |--------------------------------|------------6-------8---7-------|
G |--------------------5-------7---|8---5---7-------8---------------|
D |7---4---5---8---7-------8-------|--------------------------------|
A |--------------------------------|--------------------------------|
E |--------------------------------|--------------------------------|

    Part B  (Repeat 2x)

e |6-------------------------------|L-------------------------------|
B |--------------------------------|--------------------------------|
G |--------------------------------|--------------------------------|
D |--------------------------------|--------------------------------|
A |--------------------------------|--------------------------------|
E |--------------------------------|--------------------------------|

e |6-----6-----6---6-----6-----6---|6-----6-----6---6-----6-----6---|
B |--------------------------------|--------------------------------|
G |--------------------------------|--------------------------------|
D |--------------------------------|--------------------------------|
A |--------------------------------|--------------------------------|
E |--------------------------------|--------------------------------|

    Part C

e |--------------------------------|--------------------------------|
B |7-------------------------------|8-------------------------------|
G |--------------------------------|--------------------------------|
D |--------------------------------|--------------------------------|
A |--------------------------------|--------------------------------|
E |--------------------------------|--------------------------------|

e |5-------------------------------|6-------------------------------|
B |--------------------------------|--------------------------------|
G |--------------------------------|--------------------------------|
D |--------------------------------|--------------------------------|
A |--------------------------------|--------------------------------|
E |--------------------------------|--------------------------------|

e |--------------------------------|--------------------------------|
B |8-------------------------------|L-------------------------------|
G |--------------------------------|--------------------------------|
D |--------------------------------|--------------------------------|
A |--------------------------------|--------------------------------|
E |--------------------------------|--------------------------------|

e |--------------------------------|--------------------------------|
B |7-------------------------------|L-------------------------------|
G |--------------------------------|--------------------------------|
D |--------------------------------|--------------------------------|
A |--------------------------------|--------------------------------|
E |--------------------------------|--------------------------------|

    Play Part B again before continuing.

    Part D  (This part is an octave down, since you'd need 26 frets.)

e |--------------------------------|--------------------------------|
B |--------------------------------|--------------------------------|
G |--------------------------------|--------------------------------|
D |--------------------------------|--------------------------------|
A |--------------------------------|--------------------------------|
E |--------------------------------|--------------------------------|

e |11------------------------------|L-------------------------------|
B |--------------------------------|--------------------------------|
G |--------------------------------|--------------------------------|
D |--------------------------------|--------------------------------|
A |--------------------------------|--------------------------------|
E |--------------------------------|--------------------------------|

e |--------------------------------|--------------------------------|
B |--------------------------------|--------------------------------|
G |--------------------------------|--------------------------------|
D |8-------------------------------|L-------------------------------|
A |--------------------------------|--------------------------------|
E |--------------------------------|--------------------------------|

e |--------------------------------|----------------9-------12------|
B |--------------------------------|8-------11----------------------|
G |----------------6-------9-------|--------------------------------|
D |5-------8-----------------------|--------------------------------|
A |--------------------------------|--------------------------------|
E |--------------------------------|--------------------------------|

e |--------------------------------|--------------------------------|
B |--------------------------------|--------------------------------|
G |--------------------------------|--------------------------------|
D |10------------------------------|L-------------------------------|
A |--------------------------------|--------------------------------|
E |--------------------------------|--------------------------------|

e |--------------------------------|----------------11------14------|
B |--------------------------------|10------13----------------------|
G |----------------8-------11------|--------------------------------|
D |7-------10----------------------|--------------------------------|
A |--------------------------------|--------------------------------|
E |--------------------------------|--------------------------------|

    Part E - Play twice
                     
e |12------------------------------|--------------------------------|
B |----------------15--------------|14--------------15--------------|
G |--------------------------------|--------------------------------|
D |--------------------------------|--------------------------------|
A |--------------------------------|--------------------------------|
E |--------------------------------|--------------------------------|

e |--------------------------------|--------------------------------|
B |--------------------------------|--------------------------------|
G |12------------------------------|L-------------------------------|
D |--------------------------------|--------------------------------|
A |--------------------------------|--------------------------------|
E |--------------------------------|--------------------------------|

    Part F

e |14--------------12--------------|----------------12--------------|
B |--------------------------------|15------------------------------|
G |--------------------------------|--------------------------------|
D |--------------------------------|--------------------------------|
A |--------------------------------|--------------------------------|
E |--------------------------------|--------------------------------|

e |--------------------------------|--------------------------------|
B |--------------------------------|--------------------------------|
G |12------------------------------|L---------------12--------------|
D |--------------------------------|------------------------16------|
A |--------------------------------|--------------------------------|
E |--------------------------------|--------------------------------|

e |--------------------------------|--------------------------------|
B |--------------------------------|--------------------------------|
G |--------------------------------|--------------------------------|
D |14------------------------------|L---------------14------12------|
A |--------------------------------|--------------------------------|
E |--------------------------------|--------------------------------|

e |--------------------------------|--------------------------------|
B |--------------------------------|--------------------------------|
G |--------------------------------|--------------------------------|
D |--------------------------------|--------------------------------|
A |15------------------------------|L-------------------------------|
E |--------------------------------|--------------------------------|

    Part G (12 measures of 2/4 time)

e |13--------------|----------------|13--------------|
B |----------------|----------------|----------------|
G |----------------|10--------------|--------10------|
D |----------------|----------------|----------------|
A |----------------|----------------|----------------|
E |----------------|----------------|----------------|

e |14--------------|----------------|14--------------|
B |----------------|----------------|----------------|
G |----------------|11--------------|--------11------|
D |----------------|----------------|----------------|
A |----------------|----------------|----------------|
E |----------------|----------------|----------------|

e |----------------|----------------|----------------|
B |----------------|----------------|----------------|
G |10------10------|----------------|10--------------|
D |----------------|----------------|----------------|
A |----------------|8-------8-------|--------8-------|
E |----------------|----------------|----------------|

e |14------14------|----------------|14--------------|
B |----------------|----------------|----------------|
G |----------------|11------11------|--------11------|
D |----------------|----------------|----------------|
A |----------------|----------------|----------------|
E |----------------|----------------|----------------|

    Part H (2/4 time, with triplets)

e |------------------|------------------|------------------|
B |------------------|------------------|------------------|
G |------------------|------------------|------------------|
D |11----------------|12-------14-------|---------12-------|
A |------------------|------------------|------------------|
E |------------------|------------------|------------------|

e |------------------|------------------|
B |------------------|------------------|
G |------------------|------------------|
D |------------------|10----------------|
A |13----------------|------------------|
E |------------------|------------------|

    Part I (back to 4/4 time)

e |------------------------------------|------------------13----------------|
B |------------------------------------|13----------------------------------|
G |------------------12----------------|------------------------------------|
D |12----------------------------------|------------------------------------|
A |------------------------------------|------------------------------------|
E |------------------------------------|------------------------------------|

e |18----------------------------------|L-----------------------------------|
B |------------------------------------|------------------------------------|
G |------------------------------------|------------------------------------|
D |------------------------------------|------------------------------------|
A |------------------------------------|------------------------------------|
E |------------------------------------|------------------------------------|






                  Fourth Guitar - Strings Part (Lower)

    Part A (6 measures)

e |--------------------------------|--------------------------------|
B |--------------------------------|--------------------------------|
G |--------------------------------|--------------------------------|
D |--------------------------------|--------------------------------|
A |2-------------------------------|----------------3---------------|
E |----------------4---------------|5-------------------------------|

e |--------------------------------|--------------------------------|
B |--------------------------------|--------------------------------|
G |--------------------------------|--------------------------------|
D |--------------------------------|--------------------------------|
A |2---------------5---------------|3---------------6---------------|
E |--------------------------------|--------------------------------|

e |--------------------------------|--------------------------------|
B |--------------------------------|----------------------------7---|
G |--------------------------------|5-----------7---5---8---7-------|
D |4-----------5---4---7---5---8---|----7---8-----------------------|
A |----6---7-----------------------|--------------------------------|
E |--------------------------------|--------------------------------|

    Part B  (Repeat 2x)

e |--------------------------------|--------------------------------|
B |--------------------------------|--------------------------------|
G |7-------------------------------|L-------------------------------|
D |--------------------------------|--------------------------------|
A |--------------------------------|--------------------------------|
E |--------------------------------|--------------------------------|

e |--------------------------------|--------------------------------|
B |--------------------------------|--------------------------------|
G |6-----6-----6---6-----6-----6---|6-----6-----6---6-----6-----6---|
D |--------------------------------|--------------------------------|
A |--------------------------------|--------------------------------|
E |--------------------------------|--------------------------------|

    Part C

e |--------------------------------|--------------------------------|
B |--------------------------------|--------------------------------|
G |--------------------------------|--------------------------------|
D |7-------------------------------|8-------------------------------|
A |--------------------------------|--------------------------------|
E |--------------------------------|--------------------------------|

e |--------------------------------|--------------------------------|
B |--------------------------------|--------------------------------|
G |5-------------------------------|7-------------------------------|
D |--------------------------------|--------------------------------|
A |--------------------------------|--------------------------------|
E |--------------------------------|--------------------------------|

e |--------------------------------|--------------------------------|
B |--------------------------------|--------------------------------|
G |5-------------------------------|--------------------------------|
D |--------------------------------|8-------------------------------|
A |--------------------------------|--------------------------------|
E |--------------------------------|--------------------------------|

e |--------------------------------|--------------------------------|
B |--------------------------------|--------------------------------|
G |--------------------------------|--------------------------------|
D |7-------------------------------|L-------------------------------|
A |--------------------------------|--------------------------------|
E |--------------------------------|--------------------------------|

    Play Part B again before continuing.

    Part D  (This part is an octave down)

e |--------------------------------|--------------------------------|
B |--------------------------------|----------------11--------------|
G |--------------------------------|--------------------------------|
D |--------------------------------|--------------------------------|
A |--------------------------------|--------------------------------|
E |--------------------------------|--------------------------------|

e |--------------------------------|--------------------------------|
B |L-------------------------------|L-------------------------------|
G |--------------------------------|--------------------------------|
D |--------------------------------|--------------------------------|
A |--------------------------------|--------------------------------|
E |--------------------------------|--------------------------------|

e |--------------------------------|--------------------------------|
B |--------------------------------|--------------------------------|
G |--------------------------------|--------------------------------|
D |--------------------------------|--------------------------------|
A |10------------------------------|L-------------------------------|
E |--------------------------------|--------------------------------|

e |--------------------------------|--------------------------------|
B |--------------------------------|----------------11------14------|
G |--------------------------------|9-------12----------------------|
D |----------------8-------11------|--------------------------------|
A |7-------10----------------------|--------------------------------|
E |--------------------------------|--------------------------------|

e |--------------------------------|--------------------------------|
B |--------------------------------|--------------------------------|
G |--------------------------------|--------------------------------|
D |--------------------------------|--------------------------------|
A |12------------------------------|L-------------------------------|
E |--------------------------------|--------------------------------|

e |--------------------------------|--------------------------------|
B |--------------------------------|----------------13------16------|
G |--------------------------------|11------14----------------------|
D |----------------10------13------|--------------------------------|
A |9-------12----------------------|--------------------------------|
E |--------------------------------|--------------------------------|

    Part E - Play twice
                     
e |7---------------7---------------|----------------7---------------|
B |--------------------------------|10------------------------------|
G |--------------------------------|--------------------------------|
D |--------------------------------|--------------------------------|
A |--------------------------------|--------------------------------|
E |--------------------------------|--------------------------------|

e |--------------------------------|--------------------------------|
B |--------------------------------|--------------------------------|
G |9-------------------------------|L-------------------------------|
D |--------------------------------|--------------------------------|
A |--------------------------------|--------------------------------|
E |--------------------------------|--------------------------------|

    Part F

e |10--------------9---------------|7---------------9---------------|
B |--------------------------------|--------------------------------|
G |--------------------------------|--------------------------------|
D |--------------------------------|--------------------------------|
A |--------------------------------|--------------------------------|
E |--------------------------------|--------------------------------|

e |--------------------------------|--------------------------------|
B |--------------------------------|--------------------------------|
G |9-------------------------------|L---------------9---------------|
D |--------------------------------|------------------------12------|
A |--------------------------------|--------------------------------|
E |--------------------------------|--------------------------------|

e |--------------------------------|--------------------------------|
B |--------------------------------|--------------------------------|
G |--------------------------------|--------------------------------|
D |10------------------------------|L---------------10------9-------|
A |--------------------------------|--------------------------------|
E |--------------------------------|--------------------------------|

e |--------------------------------|--------------------------------|
B |--------------------------------|--------------------------------|
G |--------------------------------|--------------------------------|
D |--------------------------------|--------------------------------|
A |12------------------------------|L-------------------------------|
E |--------------------------------|--------------------------------|

    Part G (12 measures of 2/4 time)

e |----------------|----------------|----------------|
B |13--------------|----------------|13--------------|
G |----------------|----------------|----------------|
D |----------------|10--------------|--------10------|
A |----------------|----------------|----------------|
E |----------------|----------------|----------------|

e |----------------|----------------|----------------|
B |14--------------|----------------|14--------------|
G |----------------|----------------|----------------|
D |----------------|11--------------|--------11------|
A |----------------|----------------|----------------|
E |----------------|----------------|----------------|

e |----------------|----------------|----------------|
B |----------------|----------------|----------------|
G |----------------|----------------|----------------|
D |10------10------|----------------|10--------------|
A |----------------|----------------|----------------|
E |----------------|8-------8-------|--------8-------|

e |----------------|----------------|----------------|
B |14------14------|----------------|14--------------|
G |----------------|----------------|----------------|
D |----------------|11------11------|--------11------|
A |----------------|----------------|----------------|
E |----------------|----------------|----------------|

    Part H (2/4 time, with triplets)

e |------------------|------------------|------------------|
B |------------------|------------------|------------------|
G |------------------|------------------|------------------|
D |8-----------------|9--------10-------|---------8--------|
A |------------------|------------------|------------------|
E |------------------|------------------|------------------|

e |------------------|------------------|
B |------------------|------------------|
G |------------------|------------------|
D |------------------|------------------|
A |10----------------|12----------------|
E |------------------|------------------|

    Part I (back to 4/4 time)

e |------------------------------------|------------------------------------|
B |------------------------------------|------------------13----------------|
G |------------------------------------|12----------------------------------|
D |------------------12----------------|------------------------------------|
A |12----------------------------------|------------------------------------|
E |------------------------------------|------------------------------------|

e |13----------------------------------|L-----------------------------------|
B |------------------------------------|------------------------------------|
G |------------------------------------|------------------------------------|
D |------------------------------------|------------------------------------|
A |------------------------------------|------------------------------------|
E |------------------------------------|------------------------------------|



                  Fifth Guitar - Organ Part

    Part A (6 measures)

   vol. pedal fade in               vol. pedal fade out
e |--------------------------------|--------------------------------|
B |--------------------------------|--------------------------------|
G |7tr8----------------------------|--------------------------------|
D |--------------------------------|--------------------------------|
A |--------------------------------|--------------------------------|
E |--------------------------------|--------------------------------|

   vol. pedal fade in               vol. pedal fade out
e |--------------------------------|--------------------------------|
B |--------------------------------|--------------------------------|
G |7tr8----------------------------|--------------------------------|
D |--------------------------------|--------------------------------|
A |--------------------------------|--------------------------------|
E |--------------------------------|--------------------------------|

e |--------------------------------|--------------------------------|
B |--------------------------------|--------------------------------|
G |--------------------------------|--------------------------------|
D |--------------------------------|--------------------------------|
A |--------------------------------|--------------------------------|
E |--------------------------------|--------------------------------|

    Part B  (Repeat 2x)    This is an octave down

e |--------------------------------|--------------------------------|
B |--------------------------------|--------------------------------|
G |--------------------------------|--------------------------------|
D |--------------------------------|--------------------------------|
A |--------------------------------|--------------------------------|
E |--------------------------------|--------------------------------|

e |--------------------------------|-------------------------------9|
B |--------------------------------|----------------------8---8h11--|
G |--------------------------------|--------------6---6h9---6-------|
D |--------------------------------|------5---5h8---5---------------|
A |--------------------------------|--4h7---4-----------------------|
E |--------------------------------|3-------------------------------|

    Part C

   Play these in whatever way makes the most sense to you--I have
   two-handed tapping in mind with the way I laid out the notes, no
   notes plucked.  I marked the right-hand notes with "R", but it
   might not be the best way to play it.

   Each ... means the sets of notes are repeated four times.  It
   seemed easier to read if I did that :-)

e |--------------------------------|--------------------------------|
B |--------------------------------|--------------------------------|
G |--------------------------------|--------------------------------|
D |7-4-0-4-...---------------------|8-5-0-5-...---------------------|
A |--------------------------------|--------------------------------|
E |--------------------------------|--------------------------------|

   R  R   R                         R  R   R
e |--------------------------------|--------------------------------|
B |--------------------------------|--------------------------------|
G |--------------------------------|--------------------------------|
D |10-7-3-7-...--------------------|12-8-3-8-...--------------------|
A |--------------------------------|--------------------------------|
E |--------------------------------|--------------------------------|

                                    R  R   R
e |--------------------------------|--------------------------------|
B |--------------------------------|--------------------------------|
G |8-5-0-5-...---------------------|12-8-3-8-...--------------------|
D |--------------------------------|--------------------------------|
A |--------------------------------|--------------------------------|
E |--------------------------------|--------------------------------|

                                                            R
e |------5-10-5--------------------|--------------------------------|
B |7-3-7-------7-3-------3-7-3-----|--------------------------------|
G |--------------------------------|--------------------------------|
D |----------------7-4-7-------7-4-|------4-7-4-----4-0-4-7-12-7-4-0|
A |--------------------------------|5-0-5-------5-0-----------------|
E |--------------------------------|--------------------------------|

    Play Part B again before continuing.

    Part D

e |--------------------------------|--------------------------------|
B |--------------------------------|--------------------------------|
G |0-------------------------------|L-------------------------------|
D |--------------------------------|--------------------------------|
A |--------------------------------|--------------------------------|
E |--------------------------------|--------------------------------|

e |--------------------------------|--------------------------------|
B |L-------------------------------|L-------------------------------|
G |--------------------------------|--------------------------------|
D |--------------------------------|--------------------------------|
A |--------------------------------|--------------------------------|
E |--------------------------------|--------------------------------|

    This part doubles the bass:

e |--------------------------------|--------------------------------|
B |--------------------------------|--------------------------------|
G |--------------------------------|--------------------------------|
D |--------5-----------3---1-------|--------5-----------3---1-------|
A |----5-----------3-----------1---|----5-----------3-----------1---|
E |3-----------1-------------------|3-----------1-------------------|

e |--------------------------------|--------------------------------|
B |--------------------------------|--------------------------------|
G |--------------------------------|--------------------------------|
D |5-----------3-----------2-------|L-------------------------------|
A |--------------------------------|----5-----------4---------------|
E |--------------------------------|------------------------6-------|

e |--------------------------------|--------------------------------|
B |--------------------------------|--------------------------------|
G |--------------------------------|--------------------------------|
D |--------7-----------5---3-------|--------7-----------5---3-------|
A |----7-----------5-----------3---|----7-----------5-----------3---|
E |5-----------3-------------------|5-----------3-------------------|

e |--------------------------------|--------------------------------|
B |--------------------------------|--------------------------------|
G |--------------------------------|--------------------------------|
D |7-----------5-----------4-------|L-------------------------------|
A |--------------------------------|----7-----------6---------------|
E |--------------------------------|------------------------8-------|

    Part E - Rest for eight measures
                     
    Part F - Rest for eight measures

    Part G - Rest for twelve measures of 2/4 time

    Part H (2/4 time, with triplets)

e |------------------|------------------|------------------|
B |------------------|------------------|------------------|
G |------------------|---------5--------|---------3--------|
D |4-----------------|5-----------------|3-----------------|
A |------------------|------------------|------------------|
E |------------------|------------------|------------------|

e |------------------|------------------|
B |------------------|------------------|
G |------------------|------------------|
D |1-----------------|3-----------------|
A |------------------|---------4--------|
E |------------------|------------------|

    Part I (back to 4/4 time)

e |--------------------------------|--------------------------------|
B |--------------------------------|--------------------------------|
G |--------------------------------|--------------------------------|
D |--------------------------------|--------------------------------|
A |5---5---5---5---5---5---5---5---|5---5---5---5---5---5---5---5---|
E |--------------------------------|--------------------------------|

e |--------------------------------|--------------------------------|
B |--------------------------------|--------------------------------|
G |--------------------------------|--------------------------------|
D |--------5-----------3---1-------|--------5-----------3---1-------|
A |----5-----------3-----------1---|----5-----------3-----------1---|
E |3-----------1-------------------|3-----------1-------------------|








                                   Drum Part

C = Crash cymbal
S = Snare
B = Bass Drum

    Part A (6 measures)

C |--------------------------------|--------------------------------|
S |--------------------------------|--------------------------------|
B |--------------------------------|--------------------------------|

C |--------------------------------|--------------------------------|
S |--------------------------------|--------------------------------|
B |--------------------------------|--------------------------------|

C |--------------------------------|--------------------------------|
S |o---o---o---o---o---o---o---o---|o---o---o---o---o-o-o-o-o-o-o-o-|
B |--------------------------------|--------------------------------|

    Part B  (Repeat 2x)

C |x-------------------------------|--------------------------------|
S |--------o---------------o-------|--------o---------------o-------|
B |o---------------o---o-----------|o---o-------o-------o-------o---|

C |--------------------------------|--------------------------------|
S |--------o---------------o-------|--------o---------------o-------|
B |o-----------o-------o-----------|o-----o-----o-------o-----------|

    Part C

C |x-------------------------------|--------------------------------|
S |--------o---------------o-------|--------o---------------o-------|
B |o---------------o---o-----------|o---o-------o-------o-------o---|

C |--------------------------------|--------------------------------|
S |--------o---------------o-------|--------o---------------o-------|
B |o---------------o---o-----------|o---o-------o-------o-------o---|

C |x-------------------------------|--------------------------------|
S |--------o---------------o-------|--------o---------------o-------|
B |o---------------o---o-----------|o---o-------o-------o-------o---|

C |--------------------------------|--------------------------------|
S |--------o---------------o-------|--------o---------------o-------|
B |o---------------o---o-----------|o---o-------o-------o-------o---|

    Play Part B again before continuing.

    Part D

C |x-------------------------------|--------------------------------|
S |--------------------------------|--------------------------------|
B |o-------o-------o-------o-------|o-------o-------o-------o-------|

C |--------------------------------|--------------------------------|
S |--------------------------------|--------------------------------|
B |o-------o-------o-------o-------|o-------o-------o-------o-------|

C |x-------------------------------|--------------------------------|
S |--------o---------------o-------|--------o---------------o-------|
B |o-----------o-------o-----------|o-----------o-------o-----------|

C |--------------------------------|--------------------------------|
S |o-----------o-----------o-------|----o-----------o-------o-------|
B |----o---o-------o---o-------o---|o-------o---o-------o-------o---|

C |--------------------------------|--------------------------------|
S |--------o---------------o-------|--------o---------------o-------|
B |o-----------o-------o-----------|o-----------o-------o-----------|

C |--------------------------------|--------------------------------|
S |o-----------o-----------o-------|----o-----------o-------o-------|
B |----o---o-------o---o-------o---|o-------o---o-------o-------o---|

    Part E - Play twice

C |x-------------------------------|--------------------------------|
S |--------o---------------o-------|--------o---------------o-------|
B |o---------------o---o-----------|o---------------o---o-----------|

C |--------------------------------|--------------------------------|
S |--------o---------------o-------|--------o---------------o-------|
B |o-----------o-------o-----------|o-----------o-------o-----------|

    Part F

C |x-------------------------------|--------------------------------|
S |--------o---------------o-------|--------o---------------o-------|
B |o---------------o---o-----------|o---------------o---o-----------|

C |--------------------------------|--------------------------------|
S |--------o---------------o-------|--------o---------------o-------|
B |o-----------o-------o-----------|o-----------o-------o-----------|

C |--------------------------------|--------------------------------|
S |--------o---------------o-------|--------o---------------o-------|
B |o---------------o---o-----------|o---------------o---o-----------|

C |x-------------------------------|--------------------------------|
S |--------------------------------|--------------------------------|
B |o-------------------------------|--------------------------------|

    Part G (12 measures of 2/4 time)

C |----------------|----------------|----------------|
S |--------o-------|--------o-------|--------o-------|
B |o---------------|o---o-----------|o---------------|

C |----------------|----------------|----------------|
S |--------o-------|--------o-------|o-------o-o-----|
B |o---------------|o---o-----------|----o-------o---|

C |----------------|----------------|----------------|
S |--------o-------|--------o-------|--------o-------|
B |o---------------|o---o-----------|o---------------|

C |----------------|----------------|----------------|
S |--------o-------|--------o-------|o-------o-o-----|
B |o---------------|o---o-----------|----o-------o---|

    Part H (2/4 time, with triplets)

            T  T  T                      T  T  T
C1|o-----------------|------------------|---------o--------|
C2|------------------|---------o--------|------------------|
S |o--------o--o--o--|o--------o--------|o--o--o--o--------|
B |------------------|------------------|------------------|

            T  T  T            T  T  T
C1|------------------|------------------|
C2|------------------|o-----------------|
S |o--------o--o--o--|o--------o--o--o--|
B |------------------|------------------|

    Part I (4/4)

C |o-----------------------------------|------------------------------------|
S |------------------------------------|------------------------------------|
B |o--------o--------o--------o--------|o--------o--------o--------o--------|

C |o-----------------------------------|------------------------------------|
S |------------------------------------|------------------------------------|
B |o--------o--------o--------o--------|o--------o--------o--------o--------|
Login or Register to remove this ad.

4 comments on The Final Battle

Thank you so much, this is

Thank you so much, this is awesome.

What a work

5

What a work !!!!!!!!!!!!!!!!!!!!!!!!!!!!!!!!!!!!!!!!!!!!!!!!!!!!!!!!!!!!!!!!!

THANKS A LOT for this A W E S O M E tab :-D

TUX GUITAR DRUM TABS

Awesome job... Btw to enter drum tabs in tux guitar i found it easy to go up to view and press show matrix while having selected The percussion track.

Just in case

Double click on the track you want to use as drums. You should see a percussion track check box. Check that in and then go up to view and hit show matrix. You can see a bunch of drum items you can use.

Oh, thank you! I actually

Oh, thank you! I actually wrote a tutorial on how to add drums to GP5 and Tuxguitar, which is posted on this site. But I wrote it after I made this tab. I should probably fix up the tab :-)

EDIT: Tutorial link: http://www.gametabs.net/article/how-to-add-drums-to-your-tabs-in-gp5-or-...