Ads

Fat Chocobo (Final Fantasy IV) Guitar Tab

Submitted: Jun 12, 2019 by ajarthur (Last updated: Jun 23, 2019)

0
Download | No audio :(
Game: Final Fantasy IV
Composer(s): Nobuo Uematsu
Style: Fingerstyle
Series: Final Fantasy

Click here for a video example.

AutoScroll: Slow | Medium | Fast
Enter Fat Chocobo
Composed – Nobuo Uematsu
Arranged – ajarthur

e--------------------------------------|-------------------------------------------|
B-(0)2---0-----------------------------|-------------------------------------------|
G----2-----2---------------------------|----0-0--------0-0--------0-0--------0-0---|
D--------------2-1----012-------2----1-|-0--6-6--------4-4--------6-6--------4-4---|
A----0---------0-2----------2----------|----------4-3--------6-5--------4-3--------|
E-----------------------4--------------|-------------------------------------------|

------------------|------------------||
------------------|-----------------*||
-2-2-2-2-3-4-5----|-5-5-5-5-6-8-9----||
------------------|-----------------*||
-0---0-0-1-2-3----|------------------||
------------------|-4---4-4-5-7-8----||

https://www.youtube.com/watch?v=yqjoOHf0-iA

Login or Register to remove this ad.