Dancing Calcobrena (Final Fantasy IV) Bass/Guitar Tab

Submitted: Feb 02, 2011 by Calebelijah

5
Average: 5 (2 votes)
Download | Listen
Game: Final Fantasy IV
Composer(s): Nobuo Uematsu
Style: 2 or more instruments, Transcription
Series: Final Fantasy

Click here for a video example.

AutoScroll: Slow | Medium | Fast
                              Dancing Calcobrena                                


                                                                   Nubuo Uematsu
Lead Guitar



     H.              H.               E   E   E   E   E   E   
E||---------------|---------------|--------------------------|
B||---------------|---------------|--13--12--13--12--13--12--|
G||---------------|---------------|--------------------------|
D||---------------|---------------|--------------------------|
A||---------------|---------------|--------------------------|
E||---------------|---------------|--------------------------|


   E   E   E   E   E   E      Q.     Q.        H.            
--------------------------|-----------------|---------------|
--13--12--10------10--12--|-----------------|---------------|
--------------11----------|--11-------------|---------------|
--------------------------|-----------------|---------------|
--------------------------|-----------------|---------------|
--------------------------|-----------------|---------------|


   E  E   E  E   E  E      E  E   E  E   E   E      Q     E   E   E   E   
--10--9--10--9--10--9--|--10--9--10--9--10--12--|--19----18--17--16--15--|
-----------------------|------------------------|------------------------|
-----------------------|------------------------|------------------------|
-----------------------|------------------------|------------------------|
-----------------------|------------------------|------------------------|
-----------------------|------------------------|------------------------|


   E   E   E   E   E   E      E   E   E   E   E   E      Q     E  Q.      
--14--13------------------|------------------14------|-------------------|
----------17--16--15--14--|--15--16--17--16------17--|--15----14---------|
--------------------------|--------------------------|-------------------|
--------------------------|--------------------------|-------------------|
--------------------------|--------------------------|-------------------|
--------------------------|--------------------------|-------------------|


   Q     E  Q     E      Q     E  Q.         E   E   E   E   E   E   
---------------------|-------------------|----------14------17--14--|
--13----14-------17--|--15----14---------|--13--15------15----------|
---------------------|-------------------|--------------------------|
---------------------|-------------------|--------------------------|
---------------------|-------------------|--------------------------|
---------------------|-------------------|--------------------------|


   Q.     Q.         Q     E   E   E   E      E   E   E   E   E   E   
--22-------------|--19----18--17--16--15--|--14--13------------------|
-----------------|------------------------|----------17--16--15--14--|
-----------------|------------------------|--------------------------|
-----------------|------------------------|--------------------------|
-----------------|------------------------|--------------------------|
-----------------|------------------------|--------------------------|


   E   E   E   E   E   E      Q     E  Q.         Q     E  Q     E   
------------------14------|-------------------|---------------------|
--15--16--17--16------17--|--15----14---------|--13----14-------17--|
--------------------------|-------------------|---------------------|
--------------------------|-------------------|---------------------|
--------------------------|-------------------|---------------------|
--------------------------|-------------------|---------------------|


   Q     E  Q.         E   E   E   E   E   E      Q.     Q.      3x
-------------------|----------14------17------|--22--------------||
--15----14---------|--13--15------15------15--|------------------||
-------------------|--------------------------|-----------------*||
-------------------|--------------------------|-----------------*||
-------------------|--------------------------|------------------||
-------------------|--------------------------|------------------||


                              Dancing Calcobrena                                


                                                                   Nubuo Uematsu
Rhythm Guitar (Capo 5)



     Q    E  E  E  E     Q    E  E  E  E     Q    E  E  E  E   
E||-------0-----0-----|-------0-----0-----|-------0-----0-----|
B||-------2-----2-----|-------2-----2-----|-------2-----2-----|
G||-------------------|-------------------|-------------------|
D||-------------------|-------------------|-------------------|
A||--4----------------|--4----------------|--0----------------|
E||-------------------|-------------------|-------------------|


  Q    E  E  E  E     Q    E  E  E  E     Q    E  E  E  E     Q    E  E  E  E   
-------0-----0-----|-------0-----0-----|-------0-----0-----|-------0-----0-----|
-------2-----2-----|-------2-----2-----|-------2-----2-----|-------2-----2-----|
-------------------|-------------------|-------------------|-------------------|
-------------------|-------------------|-------------------|-------------------|
--0----------------|--4----------------|--4----------------|--0----------------|
-------------------|-------------------|-------------------|-------------------|


  Q    E  E  E  E     Q    E  E  E  E     Q    E  E  E  E     Q    E  E  E  E   
-------0-----0-----|-------0-----0-----|-------0-----0-----|-------0-----0-----|
-------2-----2-----|-------2-----2-----|-------2-----2-----|-------2-----2-----|
-------------------|-------------------|-------------------|-------------------|
-------------------|-------------------|-------------------|-------------------|
--0----------------|--4----------------|--4----------------|--0----------------|
-------------------|-------------------|-------------------|-------------------|


  Q    E  E  E  E     Q    E  E  E  E     Q    E  E  E  E     Q    E  E  E  E   
-------0-----0-----|-------0-----0-----|-------0-----0-----|-------0-----0-----|
-------2-----2-----|-------2-----2-----|-------2-----2-----|-------2-----2-----|
-------------------|-------------------|-------------------|-------------------|
-------------------|-------------------|-------------------|-------------------|
--0----------------|--4----------------|--4----------------|--0----------------|
-------------------|-------------------|-------------------|-------------------|


  Q    E  E  E  E     Q    E  E  E  E     Q    E  E  E  E     Q    E  E  E  E   
-------0-----0-----|-------0-----0-----|-------0-----0-----|-------0-----0-----|
-------2-----2-----|-------2-----2-----|-------2-----2-----|-------2-----2-----|
-------------------|-------------------|-------------------|-------------------|
-------------------|-------------------|-------------------|-------------------|
--0----------------|--4----------------|--4----------------|--0----------------|
-------------------|-------------------|-------------------|-------------------|


  Q    E  E  E  E     Q    E  E  E  E     Q    E  E  E  E     Q    E  E  E  E   
-------0-----0-----|-------0-----0-----|-------0-----0-----|-------0-----0-----|
-------2-----2-----|-------2-----2-----|-------2-----2-----|-------2-----2-----|
-------------------|-------------------|-------------------|-------------------|
-------------------|-------------------|-------------------|-------------------|
--0----------------|--4----------------|--4----------------|--0----------------|
-------------------|-------------------|-------------------|-------------------|


  Q    E  E  E  E   3x
-------0-----0------||
-------2-----2------||
-------------------*||
-------------------*||
--0-----------------||
--------------------||


                              Dancing Calcobrena                                


                                                                   Nubuo Uematsu
Bass



     H         Q        H        Q       H.              H        Q     
G||-----------------|--11--------9----|--7------------|----------------|
D||-----------11----|-----------------|---------------|--0-------------|
A||--9--------------|-----------------|---------------|-----------7----|
E||-----------------|-----------------|---------------|----------------|


  H         Q        H        Q       H.               H.            
-----------------|--11--------9----|--7------------|--14------------|
-----------11----|-----------------|---------------|----------------|
--9--------------|-----------------|---------------|----------------|
-----------------|-----------------|---------------|----------------|


  Q     E  E   Q        Q     E  Q    E     H.              H        Q     
--------------------|--11----10-------9--|--7------------|----------------|
-----------9--11----|--------------------|---------------|--0-------------|
--9----12-----------|--------------------|---------------|-----------7----|
--------------------|--------------------|---------------|----------------|


  Q.      E   Q        Q     E  E   E  E     H        Q       Q    H         
-------------------|--11------------------|--9--------8----|--7-------------|
-------------11----|---------------11-----|----------------|----------------|
--9------12--------|--------12------------|----------------|-------5--------|
-------------------|----------------------|----------------|----------------|


  Q     E  E   Q        Q     E  Q    E     H.              H        Q     
--------------------|--11----10-------9--|--7------------|----------------|
-----------9--11----|--------------------|---------------|--0-------------|
--9----12-----------|--------------------|---------------|-----------7----|
--------------------|--------------------|---------------|----------------|


  Q.      E   Q        Q     E  E   E  E     H        Q       Q    H         3x
-------------------|--11------------------|--9--------8----|--7--------------||
-------------11----|---------------11-----|----------------|----------------*||
--9------12--------|--------12------------|----------------|-------5--------*||
-------------------|----------------------|----------------|-----------------||




Duration Legend
---------------
W - whole
H - half
Q - quarter
E - 8th
S - 16th
T - 32nd
X - 64th
. - note dotted
|-n-|  - n-tuplets


Tablature Legend
----------------
L - tied note
x - dead note
g - grace note
(n) - ghost note
> - accentuded note
NH - natural harmonic
AH - artificial harmonic
TH - tapped harmonic
SH - semi harmonic
PH - pitch harmonic
h - hammer on
p - pull off
b - bend
br - bendRelease
pb - preBend
pbr - preBendRelease
brb - bendReleaseBend
\n/ - tremolo bar dip
\n - tremolo bar dive
-/n - tremolo bar Release up
/n\ - tremolo bar inverted dip
/n - tremolo bar return
-\n - tremolo bar Release down
S - shift slide
s - legato slide
/ -  slide into from below or out of upwards
\ -  slide into from above or out of downwards
~ - vibrato
W - wide vibrato
tr - trill
TP - tremolo picking
T - tapping
S - slap
P - pop
< - fade in
^ - brush up
v - brush down
Login or Register to remove this ad.