Ads

Castle Damcyan (Final Fantasy IV) Guitar Tab

Submitted: Mar 09, 2012 by StealthyDirtbag

5
Average: 5 (1 vote)
Download | Listen
Game: Final Fantasy IV
Composer(s): Nobuo Uematsu
Style: Arrangement, Fingerstyle
Series: Final Fantasy

AutoScroll: Slow | Medium | Fast
Castle Damcyan
Final Fantasy IV
Composed by Nobuo Uematsu
Tabbed by StealthyDirtbag - 08/03/12


E||--------3--5--6-----10-----|--------------------------|-----------5--6-----10-----|
B||---------------------------|--7-----------------------|--------8------------------|
G||-----0--3--0-----0------0--|--------3-----------3-----|-----0-----0-----0------0--|
D||--0-----------0------8-----|-----4-----4-----4-----4--|--0-----8-----0------8-----|
A||---------------------------|--6-----------6-----------|---------------------------|
E||---------------------------|--------------------------|---------------------------|


--13-----11--10--8-----------|--------3--5--6-----10-----|--------------------------|
-----------------------------|---------------------------|--7-----------------------|
-----------------------3-----|-----0--3--0-----0------0--|--------3-----------3-----|
----------8---------4-----4--|--0-----------0------8-----|-----4-----4-----4-----4--|
------9-------9--6-----------|---------------------------|--6-----------6-----------|
--11-------------------------|---------------------------|--------------------------|


-----------5--6-----10-----|--13-----11--10--8-----------|--10--11--10------------------|
--------8------------------|-----------------------------|-----------------------11-----|
-----0-----0-----0------0--|-----------------------3-----|------------------------------|
--0-----8-----0------8-----|----------8---------4-----4--|---0-------8-----0------8-----|
---------------------------|------9-------9--6-----------|-------8------8-----8------8--|
---------------------------|--11-------------------------|------------------------------|


--8--10---8-------------------|----------------------------|--8-----6-----5--------5--||
-----------------------10-----|--11--------10--8--------7--|--------------------7-----||
------------------------------|----------------------------|--------0-----6--8--------||
--0------10------------10-----|---------8------------8-----|-----------8--------------||
------9------9------9------9--|------7------7-----7-----7--|-----6--------------------||
----------------10------------|---9------------9-----------|--8-----------------------||
Login or Register to remove this ad.

1 comment on Castle Damcyan

Nice tab!

5

It sounds good, got some fun stretches in there and what not, and fun to play :)