The Big Whale (Final Fantasy IV) Guitar Tab

Submitted: Jan 19, 2011 by auriplane (Last updated: Jan 19, 2011)

5
Average: 5 (2 votes)
Download | Listen
Game: Final Fantasy IV
Composer(s): Nobuo Uematsu
Style: 2 or more instruments, Alternate picking, Sweep picking, Transcription
Series: Final Fantasy

AutoScroll: Slow | Medium | Fast
                                 Final Fantasy IV - Big Whale GUITAR TAB
                                          Song by Nobuo Uematsu

                                 Tabbed by auriplane ([email protected])


I made a GP5 file with all of the instruments, so if you want the other stuff, check out the GP5 in
the download link.  There's also a bass tab, posted separately on GameTabs.  This tab is just for the
melody (the trumpet part).

Standard tuning.


        Part A

   H           H            H.                Q      Q     Q     H            W
e |------------------------|------------------------|------------11----------|L~----------------------|
B |------------------------|11----------------------|9-----11----------------|------------------------|
G |8-----------10----------|------------------8-----|------------------------|------------------------|
D |------------------------|------------------------|------------------------|------------------------|
A |------------------------|------------------------|------------------------|------------------------|
E |------------------------|------------------------|------------------------|------------------------|


   H           H            H.                Q      Q     Q     H            W
e |------------------------|------------------------|------------16----------|L~----------------------|
B |------------13----------|16----------------------|14----16----------------|------------------------|
G |15----------------------|------------------13----|------------------------|------------------------|
D |------------------------|------------------------|------------------------|------------------------|
A |------------------------|------------------------|------------------------|------------------------|
E |------------------------|------------------------|------------------------|------------------------|


        Part B

   H.                E  E   H           H            E  E  Q     H            H.                Q
e |13----------------------|------------13----------|11-13-11----------------|------------------------|
B |------------------11-13-|14----------------------|------------11----------|L~----------------14----|
G |------------------------|------------------------|------------------------|------------------------|
D |------------------------|------------------------|------------------------|------------------------|
A |------------------------|------------------------|------------------------|------------------------|
E |------------------------|------------------------|------------------------|------------------------|


   H.                E  E   H           H            E  E  H.                 H           Q     Q
e |13----------------------|------------13----------|11-13-14----------------|L~----------14----16----|
B |------------------11-13-|14----------------------|------------------------|------------------------|
G |------------------------|------------------------|------------------------|------------------------|
D |------------------------|------------------------|------------------------|------------------------|
A |------------------------|------------------------|------------------------|------------------------|
E |------------------------|------------------------|------------------------|------------------------|


   W                        H           Q     Q      W                        W
e |17----------------------|L~----------17----19----|20----------------------|L~----------------------|
B |------------------------|------------------------|------------------------|------------------------|
G |------------------------|------------------------|------------------------|------------------------|
D |------------------------|------------------------|------------------------|------------------------|
A |------------------------|------------------------|------------------------|------------------------|
E |------------------------|------------------------|------------------------|------------------------|




Duration Legend
---------------
W - whole
H - half
Q - quarter
E - 8th
. - note dotted


Tablature Legend
----------------
L - tied note
~ - vibrato

Login or Register to remove this ad.

2 comments on The Big Whale

Wow, nice work ! And very

5

Wow, nice work ! And very quick, i have requested this song yesterday !
Thanks a lot ;) Gametabs can go on the moon now !

Very nice, also lol'd at the

5

Very nice, also lol'd at the moon comment