Ads

Another Moon (Final Fantasy IV) Guitar Tab

Submitted: Jan 12, 2015 by Exdeath

5
Average: 5 (1 vote)
Download | Listen
Game: Final Fantasy IV
Composer(s): Nobuo Uematsu
Style: Arrangement, Fingerstyle
Series: Final Fantasy

AutoScroll: Slow | Medium | Fast
  Another Moon                                   


 (Capo 1)
                         W                   H.           Q     
E||-------------------|-------------------|--------------------|
B||-------------------|-------------------|--------------------|
G||-------------------|-------------------|--------------------|
D||-------------------|-------------------|--------------------|
A||-------------------|-------------------|---------------2----|
E||-------------------|--0----------------|--L-----------------|


  W                   H.           Q       Q    E  E  Q    Q     
-------------------|--------------------|-------3-----3----2----|
-------------------|--------------------|----------5------------|
-------------------|--------------------|-------4---------------|
-------------------|--------------------|-------2---------------|
-------------------|---------------2----|-----------------------|
--0----------------|--L-----------------|--0--------------------|


  H.           Q       Q    E  E  Q    Q       H.           Q     
--L-----------------|-------1-----1----0----|--L-----------------|
--------------------|----------3------------|--------------------|
--L-----------------|-------3---------------|--L-----------------|
--L-----------------|-------2---------------|--L-----------------|
---------------2----|-----------------------|---------------2----|
--L-----------------|--0--------------------|--L-----------------|


  Q    E  E  Q    Q       H.           Q       Q    E  E  Q    Q     
-------3-----3----2----|--L-----------------|-------1-----1----0----|
----------5------------|--------------------|----------3------------|
-------4---------------|--L-----------------|-------3---------------|
-------2---------------|--L-----------------|-------2---------------|
-----------------------|---------------2----|-----------------------|
--0--------------------|--L-----------------|--0--------------------|


  H.           Q       Q    Q    Q     Q       Q    Q    Q    Q     
--L-----------------|-------9----7----------|----------------------|
--------------------|--9--------------10----|--9----7----5----7----|
--L-----------------|-----------------------|--6----L----5---------|
--L-----------------|--7---------------L----|------------4---------|
--------------------|--7---------------L----|----------------------|
--L------------7----|--0--------------------|------------L----7----|


  H         H            H         Q    Q       Q    Q    Q    Q     
---------------------|--10--------17----L----|-------9----7----5----|
-----------10--------|-----------------------|--9---------5----L----|
--7------------------|-----------------------|--6----L----6----L----|
--9------------------|-------------L---------|----------------------|
--9------------------|-------------L---------|--7----L--------------|
--0------------------|-------------L----7----|--0-------------------|


  Q    Q    Q    Q       H        H           H.           Q     
----------------------|-----------7--------|--L-----------------|
--9----7----5----4----|--3-----------------|--3-----------------|
------------4---------|--2-----------------|--L-----------------|
--6----L----6---------|--5-----------------|--L-----------------|
--7----L---------2----|--------------------|---------------2----|
------------L---------|--0-----------------|--L-----------------|


  W                   H.           Q       W                 
-------------------|--------------------|-------------------|
-------------------|--------------------|-------------------|
-------------------|--------------------|-------------------|
-------------------|--------------------|-------------------|
-------------------|---------------2----|-------------------|
--0----------------|--L-----------------|--0----------------|


  H.           Q       Q    E  E  Q    Q       H.           Q     
--------------------|-------3-----3----2----|--L-----------------|
--------------------|----------5------------|--------------------|
--------------------|-------4---------------|--L-----------------|
--------------------|-------2---------------|--L-----------------|
---------------2----|-----------------------|---------------2----|
--L-----------------|--0--------------------|--L-----------------|


  Q    E  E  Q    Q       H.           Q       Q    E  E  Q    Q     
-------1-----1----0----|--L-----------------|-------3-----3----2----|
----------3------------|--------------------|----------5------------|
-------3---------------|--L-----------------|-------4---------------|
-------2---------------|--L-----------------|-------2---------------|
-----------------------|---------------2----|-----------------------|
--0--------------------|--L-----------------|--0--------------------|


  H.           Q       Q    E  E  Q    Q       H.           Q     
--L-----------------|-------1-----1----0----|--L-----------------|
--------------------|----------3------------|--------------------|
--L-----------------|-------3---------------|--L-----------------|
--L-----------------|-------2---------------|--L-----------------|
---------------2----|-----------------------|--------------------|
--L-----------------|--0--------------------|--L------------7----|


  Q    Q    Q     Q       Q    Q    Q    Q       H         H         
-------9----7----------|----------------------|---------------------|
--9--------------10----|--9----7----5----7----|-----------10--------|
-----------------------|--6----L----5---------|--7------------------|
--7---------------L----|------------4---------|--9------------------|
--7---------------L----|----------------------|--9------------------|
--0--------------------|------------L----7----|--0------------------|


   H         Q    Q       Q    Q    Q    Q       Q    Q    Q    Q     
--10--------17----L----|-------9----7----5----|----------------------|
-----------------------|--9---------5----L----|--9----7----5----4----|
-----------------------|--6----L----6----L----|------------4---------|
-------------L---------|----------------------|--6----L----6---------|
-------------L---------|--7----L--------------|--7----L---------2----|
-------------L----7----|--0-------------------|------------L---------|


  H        H           H.           Q       W                 
-----------7--------|--L-----------------|-------------------|
--3-----------------|--3-----------------|-------------------|
--2-----------------|--L-----------------|-------------------|
--5-----------------|--L-----------------|-------------------|
--------------------|---------------2----|-------------------|
--0-----------------|--L-----------------|--0----------------|


-------------------||
-------------------||
-------------------||
-------------------||
-------------------||
-------------------||
Login or Register to remove this ad.