Airship (Final Fantasy IV) Guitar Tab

Submitted: Aug 20, 2009 by movin_target (Last updated: Aug 20, 2009)

0
Download | Listen
Game: Final Fantasy IV
Composer(s): Nobuo Uematsu
Style: Transcription
Series: Final Fantasy

AutoScroll: Slow | Medium | Fast
The Airship theme from FFIV. Simple tune, but very cathcy IMO.

                   Final Fantasy IV - Airship Theme Guitar Tab
                              Song by Nobuo Uematsu

                             Tabbed by: movin_target
                                    8-20-09 

E|----------15-----13--11---------------------------------------------------- 
B|---------------------------15---13---11----13--15----13------11------13----
G|----12--------------------------------------------------------------------- 
D|--------------------------------------------------------------------------- 
A|---------------------------------------------------------------------------
E|---------------------------------------------------------------------------



E|----10---12--------------10----------10---12-------------10---------------- 
B|---------------10--13---------13---------------10--13----------------------
G|--------------------------------------------------------------------------- 
D|--------------------------------------------------------------------------- 
A|---------------------------------------------------------------------------
E|---------------------------------------------------------------------------


E|---------10---12----15--14--12--10----------14----------------------------- 
B|----13--------------------------------14-----------------------------------
G|--------------------------------------------------------------------------- 
D|--------------------------------------------------------------------------- 
A|---------------------------------------------------------------------------
E|---------------------------------------------------------------------------
Login or Register to remove this ad.