Veggies of Geasal (Final Fantasy III) Guitar Tab

Submitted: Oct 03, 2014 by JordanVS

0
Download | Listen
Game: Final Fantasy III
Composer(s): Nobuo Uematsu
Style: Arrangement, Fingerstyle
Series: Final Fantasy

This song is also called Gysahl Greens

AutoScroll: Slow | Medium | Fast
Vegies of Geasal                                           
Veggies Of Geasal
Final Fantasy III
Nobuo Uematsu
JordanVS

                                                                            
*Capo on the 5th fret
-4/4
-Tempo : 110


      Q    Q    E.  S E  E     E  S S S S S S E  E  E  E     Q    Q    E.  S E  E   
E||---3-------------0-------|---------0-------------------|--3-------------0-------|
B||--------3----2-----3-----|--2--2-3---3-2------0--------|-------3----2-----3-----|
G||*---------------------2--|---------------2-0-----2-----|---------------------2--|
D||*-------0----------0-----|---------0----------------2--|-------0----------0-----|
A||-------------------------|-----------------------5-----|------------------------|
E||---3---------3-----------|--3--------------3-----------|--3---------3-----------|


  E  S S S S S S E  E  Q       Q    Q    S  S  S  S E  E     E  S S S S S S E  E  Q     
---------0------------------|--0---------5h-7p-5h-7-5--0--|--5--3-2-0-2-3-4-------5----|
--2--2-3---3-2------0-------|-----------------------------|----------------------------|
---------------2-0-----2----|-------2---------------------|--------------------2-------|
---------0-------------0----|-------2---------------2-----|---------2------------------|
----------------------------|--0---------0----------------|--0--------------0----------|
--3--------------3----------|-----------------------------|----------------------------|


  Q    Q    S  S  S  S E  E     S  S E  S  S E  S  S E  S  S E       H        H          
--0---------5h-7p-5h-7-5--0--|--5h-7-5--3h-5-3--2h-3-2--0h-2-0---||--3-----------------||
-----------------------------|-----------------------------------||--3-----------------||
-------2---------------------|----------------------------------*||--4-----------------||
-------2---------------2-----|--7-------5-------4---------------*||--------------------||
--0---------0----------------|--------------------------0--------||--------------------||
-----------------------------|-----------------------------------||--3-----------------||




Duration Legend
---------------
W - whole
H - half
Q - quarter
E - 8th
S - 16th
T - 32nd
X - 64th
. - note dotted
|-n-|  - n-tuplets


Tablature Legend
----------------
L - tied note
h - hammer on
p - pull off
^ - brush up
v - brush down
Login or Register to remove this ad.

1 comment on Veggies of Geasal

= Gysahl Greens

= Gysahl Greens