Veggies of Geasal (Final Fantasy III) Bass/Guitar Tab

Submitted: Nov 29, 2010 by mrjordak2 (Last updated: Nov 30, 2010)

5
Average: 5 (1 vote)
Download | Listen
Game: Final Fantasy III
Composer(s): Nobuo Uematsu
Style: 2 or more instruments, Transcription
Series: Final Fantasy

This song is also called Gysahl Greens

AutoScroll: Slow | Medium | Fast
Veggies of Geasal
Final Fantasy III
Nobuo Uematsu
Tab by Jordan Norbury
23 November 2010

Timing: 4/4
Tuning: Standard

Wow, I never knew that you could just click on Export on Guitar Pro and get tabs done in ASCII form.
That'll make things easier in future =D

Anyway, the song repeats then fades out on the third time through. Quite a few staccato notes as well,
but they aren't too hard to hear, so I'm sure you can work them out.

ALSO, I'm not a guitarist, I'm a bassist, so although I'm pretty sure I nailed Guitar 1, I'm not 100% sure 
about Guitar 2. If I am wrong, let me know.

Guitar 1:

   E  E  E  E  E.  S E  E     E  S S  S S S S E  E  E  E   
E||8---------------5-------|------------------------------|
B||------8-----7-----8-----|--7--7-8-10-8-7------5--------|
G||---------------------7--|----------------7-5-----7-----|
D||------------------------|---------------------------7--|
A||------------------------|------------------------------|
E||------------------------|------------------------------|


   E  E  E  E  E.  S E  E     E  S S  S S S S E  E  E  E   
E||8---------------5-------|------------------------------|
B||------8-----7-----8-----|--7--7-8-10-8-7------5--------|
G||---------------------7--|----------------7-5-----7-----|
D||------------------------|------------------------------|
A||------------------------|------------------------------|
E||------------------------|------------------------------|


   E  E  E  E   S  S  S  S  E   E      E   S  S  S  S  S  S Q     E  E   
E||5-----------10-12-10-12-10------|--10-------------------------10-----|
B||------3---------------------10--|------13-12-10-12-13-14-------------|
G||--------------------------------|------------------------------------|
D||--------------------------------|------------------------------------|
A||--------------------------------|------------------------------------|
E||--------------------------------|------------------------------------|


   E  E  E  E   S  S  S  S  E   E      S  S  E  S  S E  S S E  S S E     
E||5-----------10-12-10-12-10------|--10-12-10--8-10-8--7-8-7--5-7-5---||
B||------3---------------------10--|-----------------------------------||
G||--------------------------------|-----------------------------------||
D||--------------------------------|-----------------------------------||
A||--------------------------------|-----------------------------------||
E||--------------------------------|-----------------------------------||

Guitar 2:

   E  S  S  E   E   S  S  S  S  E   E   
E||------------------------------------|
B||----------------15-17-15-17-15------|
G||---9-11-12----------------------14--|
D||------------12----------------------|
A||------------------------------------|
E||------------------------------------|


   E   S  S  S  S  S  S E  S  S  E  E     E  S  S  E   E   S  S  S  S  E   E   
E||------------------------------------|--------------------------------------|
B||------------------------------------|------------------15-17-15-17-15------|
G||---14-16-17-16-14-11----9-12-11-----|-----9-11-12----------------------14--|
D||------------------------------------|--------------12----------------------|
A||------------------------------------|--------------------------------------|
E||------------------------------------|--------------------------------------|


   E   S  S  S  S  S  S E  S  S  E  E     E   S  S E   S  S  S  S  S  S  E  E   
E||------------------------------------|---------------------------------------|
B||------------------------------------|---------------------------------------|
G||---14-16-17-16-14-11----9-12-11-----|-----11-12----14-16-17-16-17-16-17-----|
D||------------------------------------|---------------------------------------|
A||------------------------------------|---------------------------------------|
E||------------------------------------|---------------------------------------|


   E   S  S  S  S  S  S H           E   S  S E   S  S  S  S  S  S  E  E   
E||------------------------------|---------------------------------------|
B||------------------------------|---------------------------------------|
G||---17-16-14-16-17-18----------|-----11-12----14-16-17-16-17-16-17-----|
D||------------------------------|---------------------------------------|
A||------------------------------|---------------------------------------|
E||------------------------------|---------------------------------------|


     S  S  E  S  S E  S S E  S S E    
E||-------------------------------------|
B||-------------------------------------|
G||--11-12-11-9-11-9--7-9-7--5-7-5------|
D||-------------------------------------|
A||-------------------------------------|
E||-------------------------------------|

Bass:

I've tabbed out the 6th bar as best I can, but it's still a bit tricky to play.

      Q    Q    Q    Q       Q    Q    Q    Q       Q    Q    Q    Q     
G||-----------------------|----------------------|----------------------|
D||--------5---------5----|-------5---------5----|-------5---------5----|
A||---3---------3---------|--3---------3---------|--3---------3---------|
E||-----------------------|----------------------|----------------------|


     Q    Q    Q    Q       Q    Q    Q    Q       Q    Q    E  E   S  S  S  S  
G||----------------------|----------------------|---------------7-----------20-|
D||-------5---------5----|-------7---------7----|-------7----------------18----|
A||--3---------3---------|--5---------5---------|--5---------5--------16-------|
E||----------------------|----------------------|------------------14----------|


     Q    Q    Q    Q       E  E  E  E  E  E  E  E   
G||----------------------|--7-----5-----4-----2------|
D||-------7---------7----|-----------------4-----0---|
A||--5---------5---------|-----5-----7---------------|
E||----------------------|---------------------------|

Duration Legend
---------------
W - whole
H - half
Q - quarter
E - eighth
S - sixteenth
Login or Register to remove this ad.

2 comments on Veggies of Geasal

Nice!

5

Nice!

Thank you!

=D