Town of Amur (Final Fantasy III) Guitar Tab

Submitted: Oct 03, 2014 by JordanVS

5
Average: 5 (1 vote)
Download | Listen
Game: Final Fantasy III
Composer(s): Nobuo Uematsu
Style: Arrangement, Fingerstyle
Series: Final Fantasy

This song is also called Town of Water

AutoScroll: Slow | Medium | Fast
Town of Water                                             
Town of Amur
Final Fantasy III
Nobue Uematsu
JordanVS                                                                                   Final Fantasy III

-4/4
-Tempo : 68

     Q    Q    Q    Q       Q    Q    Q    E  E     Q    Q    Q    Q       Q    Q    Q    Q     
E||----------------------|-----------------------|-----------------0----|--1---------0---------|
B||--0--------------1----|--3---------0----------|--3-------------------|-----------------3----|
G||------------0---------|--4---------0----------|-------2--------------|--2-------------------|
D||-------0---------0----|-------0---------3--2--|--0---------3----0----|-------0----3----0----|
A||----------------------|-----------------------|----------------------|----------------------|
E||--3-------------------|-----------------------|----------------------|----------------------|


  Q    Q    Q    Q       Q    Q    Q    Q       Q    Q    Q    Q       Q    Q    Q    Q     
----------------------|----------------------|----------------------|----------------------|
--3----1--------------|-----------------1----|--0-------------------|----------------------|
------------0---------|-------0----2---------|-----------------0----|--2-------------------|
-----------------0----|--2-------------------|------------0---------|--0---------3----0----|
--3---------3---------|-----------------3----|-------2--------------|-------0--------------|
-------3--------------|------------3---------|--3-------------------|----------------------|


  Q    Q    Q    Q       Q    Q    Q    E  E     Q    Q    Q    Q       Q    Q    Q    Q     
----------------------|-----------------------|-----------------0----|--1---------0---------|
--0--------------1----|--3---------0----------|--3-------------------|-----------------3----|
------------0---------|--4---------0----------|-------2--------------|--2-------------------|
-------0---------0----|-------0---------3--2--|--0---------3----0----|-------0----3----0----|
----------------------|-----------------------|----------------------|----------------------|
--3-------------------|-----------------------|----------------------|----------------------|


  Q    Q    Q    Q       Q    Q    Q    Q       Q    Q    Q    Q       Q    Q    Q    Q     
----------------------|----------------------|----------------------|----------------------|
--3----1--------------|----------------------|------------0----1----|--3----1----0---------|
------------0---------|-------0---------0----|--0-------------------|-----------------0----|
-----------------0----|--2---------2---------|-------0--------------|----------------------|
--3---------3---------|-----------------3----|----------------------|----------------------|
-------3--------------|------------3---------|--3-------------------|----------------------|


  Q    Q    Q    E  E     Q    Q    Q    Q       Q    Q    Q    Q       Q    Q    Q    Q     
-----------------------|------------2---------|--0-------------------|----------------------|
--3--------------0--2--|--3-------------------|-------0----0---------|--L-------------------|
-----------------------|-------4--------------|-------0---------0----|-------0--------------|
-------0----4----------|------------4----0----|--2-------------------|--2---------4----2----|
--2--------------------|----------------------|----------------------|------------2---------|
-----------------------|----------------------|----------------------|-------3---------3----|


  Q    Q    Q    E  E     Q    Q    Q    Q       Q    Q    Q    Q       Q    Q    Q    Q     
-----------------------|------------2---------|--0-------------------|-------0--------------|
--3--------------0--2--|--3-------------------|------------1---------|------------3----1----|
-----------------------|-------4--------------|-------0---------0----|-------0---------0----|
-------0----4----------|------------4----0----|----------------------|--2-------------------|
--2--------------------|----------------------|--3-------------------|------------3---------|
-----------------------|----------------------|----------------------|----------------------|


  Q    Q    Q    Q       Q    E  E  E  E  E  E     Q    Q    Q    Q       Q    Q    Q    Q     
----------------------|-------------------------|----------------------|----------------------|
--3---------0---------|--0-------0--1--0--------|--0-------------------|-----------------0----|
-----------------0----|-------------0-----2--0--|-------2----2---------|--L---------2---------|
------------0---------|-------0-----------0-----|--0----3---------3----|--0-------------------|
-------2--------------|-------------------------|----------------------|-------2----0---------|
--3-------------------|-------------------------|----------------------|-----------------1----|


  Q    Q    Q    Q       Q    Q    Q    Q       Q    Q    Q    Q       Q    Q    Q    Q     
----------------------|----------------------|----------------------|----------------------|
----------------------|----------------------|----------------------|------------0---------|
--2----0--------------|-----------------0----|--0---------0---------|--2-------------------|
------------2---------|--L---------1---------|-------0---------0----|-------0---------0----|
--3---------3----2----|--0---------3---------|----------------------|----------------------|
----------------------|-------3--------------|--3-------------------|----------------------|


  ^                  
  W                  
-------------------||
--3----------------||
--4----------------||
--5----------------||
-------------------||
--3----------------||




Duration Legend
---------------
W - whole
H - half
Q - quarter
E - 8th
S - 16th
T - 32nd
X - 64th
. - note dotted
|-n-|  - n-tuplets



Login or Register to remove this ad.

1 comment on Town of Amur

Breddy Grud

5

Guhd job.