Tower of Owen (Final Fantasy III) Guitar Tab

Submitted: Sep 15, 2014 by JordanVS

0
Download | Listen
Game: Final Fantasy III
Composer(s): Nobuo Uematsu
Style: Arrangement, Fingerstyle
Series: Final Fantasy

AutoScroll: Slow | Medium | Fast
Tower of Owen                                             
Final Fantasy III
Nobuo Uematsu
JordanVS
                                                                                   Final Fantasy III
*Capo on the 3rd fret
-4/4
-Tempo : 130



      |----3----|    |----3----|       |----3----|    |----3----|     
      Q    Q    Q    Q    Q    Q       Q    Q    Q    Q    Q    Q     
E||---------------------------------|--------------------------------|
B||---------------------------------|--------------------------------|
G||*-----------------2--------------|-----------------5--------------|
D||*-------0----1---------1----0----|-------3----4---------4----3----|
A||---0-----------------------------|--3-----------------------------|
E||---------------------------------|--------------------------------|


  |----3----|    |----3----|       |----3----|    |----3----|                                   
  Q    Q    Q    Q    Q    Q       Q    Q    Q    Q    Q    Q          E  E  E  E  E  E  E  E   
--------------------------------|-----------------2---------------||---------------------------|
-----------------4--------------|----------------------1----0-----||---------------------------|
-------1----2---------2----1----|-------4----5-------------------*||*--2-----------------------|
--1-----------------------------|--4--------------4----1---------*||*--------0-----------0-----|
--------------------------------|---------------------------3-----||---0--3-----3--0--3-----3--|
--------------------------------|--2------------------------------||---------------------------|


  E  E  E  E  E  E  E  E     E  E  E  E  E  E  E  E     E  E  E  E  E  E  E  E   
--------------------------|--------------------------|--------------------------|
--1-----------------------|--0-----------------------|--------------------------|
--------------------------|--------------------------|--3-----------------------|
--------0-----------0-----|--------0-----------0-----|--------0-----------0-----|
--0--3-----3--0--3-----3--|--0--3-----3--0--3-----3--|--0--3-----3--0--3-----3--|
--------------------------|--------------------------|--------------------------|


  E  E  E  E  E  E  E  E     E  E  E  E  E  E  E  E     Q    E  E  E  Q    E   
--------------------------|--------------------------|------------------------|
--------------------------|--6-----6-----6-----6-----|-------0----------------|
--2-----------------------|--------------------------|----------------3-------|
--------0-----------0-----|-----3-----3-----3-----3--|--2-------2--0-------0--|
--0--3-----3--0--3-----3--|--6-----6-----6-----6-----|--2----------1----------|
--------------------------|--------------------------|------------------------|


  E  E  E  E  E  E  E  E     Q    E  E  E  Q    E     
--------------------------|-------------------------||
--6-----6-----6-----6-----|-------0-----------------||
--------------------------|----------------3-------*||
-----3-----3-----3-----3--|--2-------2--0-------0--*||
--6-----6-----6-----6-----|--2----------1-----------||
--------------------------|-------------------------||




Duration Legend
---------------
W - whole
H - half
Q - quarter
E - 8th
S - 16th
T - 32nd
X - 64th
. - note dotted
|-n-|  - n-tuplets


Tablature Legend
----------------
L - tied note
x - dead note
g - grace note
(n) - ghost note
> - accentuded note
NH - natural harmonic
AH - artificial harmonic
TH - tapped harmonic
SH - semi harmonic
PH - pitch harmonic
h - hammer on
p - pull off
b - bend
br - bendRelease
pb - preBend
pbr - preBendRelease
brb - bendReleaseBend
\n/ - tremolo bar dip
\n - tremolo bar dive
-/n - tremolo bar Release up
/n\ - tremolo bar inverted dip
/n - tremolo bar return
-\n - tremolo bar Release down
S - shift slide
s - legato slide
/ -  slide into from below or out of upwards
\ -  slide into from above or out of downwards
~ - vibrato
W - wide vibrato
tr - trill
TP - tremolo picking
T - tapping
S - slap
P - pop
< - fade in
^ - brush up
v - brush down
Login or Register to remove this ad.