Temple of Nept (Final Fantasy III) Guitar Tab

Submitted: Oct 15, 2014 by JordanVS

5
Average: 5 (1 vote)
Download | Listen
Game: Final Fantasy III
Composer(s): Nobuo Uematsu
Style: Arrangement, Fingerstyle
Series: Final Fantasy

This song is also called Shrine of Nept / The Nepto Shrine / Temple Of Nept

AutoScroll: Slow | Medium | Fast
Shrine of Nept                                            
The Nepto Shrine/Temple Of Nept 
Final Fantasy III
Nobuo Uematsu 
JordanVS

*Capo on the 5th fret
-4/4
-Tempo : 123


                                                                  |--3--|             
     E  E  E  E  E  E  E  E     E  E  E  E  E  E  E  E       Q    E  E  E  Q    Q     
E||--------------------------|--------------------------||---0----------0------------|
B||--1--------0--1-----3--0--|--1--------0--1-----3-----||---1-------1-----4---------|
G||-----2--1--------2--------|-----2--1--------2-----2--||*-------2-------------2----|
D||--------------------------|--------------------------||*--------------------------|
A||--0-----0-----0-----0-----|--0-----0-----0-----0-----||---0-----------------------|
E||--------------------------|--------------------------||---------------------------|


       |--3--|                   |--3--|                                    
  Q    E  E  E  H           Q    E  E  E  E  E  E  E     H.           Q     
--0----------3--2--------|--0-------0--5--3--2--0-----|--0-----------------|
--1-------1-----4--------|--1----1-----------------4--|--1-----------------|
-------2-----------------|--2-------------------2-----|--2-----------------|
-------------------------|----------------------------|--------------------|
--0----------------------|--0-------------------------|--0-----------------|
-------------------------|----------------------------|--------------------|


       |--3--|                    |--3--|                   |--3--|               
  Q    E  E  E  Q    Q       Q    E  E  E  H           Q    E  E  E  E  E  E  E   
--0----------0------------|--0----------3--2--------|--0-------0--5--3--2--0--2--|
--1-------1-----4---------|--1-------1-----4--------|--1----1--------------------|
-------2-------------2----|-------2-----------------|--2-------------------2-----|
--------------------------|-------------------------|----------------------------|
--0-----------------------|--0----------------------|--0-------------------------|
--------------------------|-------------------------|----------------------------|

1.
                                      |--3--|                                           |--3--|   
  H.           Q       Q    Q    Q    E  E  E     Q    Q    Q    Q       Q    Q    Q    E  E  E   
--3------------0----|--7--------------3--0--3--|--5--------------0----|--3--------------3--0--3--|
--1-----------------|--5-----------------------|--3-------------------|--5-----------------------|
--------------------|--5-----------------------|--4-------------------|--5-----------------------|
--------------------|--------------------------|----------------------|--------------------------|
--0-----------------|--0----0----0----0--------|--0----0----0----0----|--0----0----0----0--------|
--------------------|--------------------------|----------------------|--------------------------|


                                        |--3--|                                           |--3--|   
  Q    Q    Q    Q       Q    Q    Q    E  E  E     Q    Q    Q    Q       Q    Q    Q    E  E  E   
--2--------------0----|--7--------------3--0--3--|--5--------------0----|--3--------------3--0--3--|
--3-------------------|--5-----------------------|--3-------------------|--5-----------------------|
--4-------------------|--5-----------------------|--4-------------------|--5-----------------------|
----------------------|--------------------------|----------------------|--------------------------|
--0----0----0----0----|--0----0----0----0--------|--0----0----0----0----|--0----0----0----0--------|
----------------------|--------------------------|----------------------|--------------------------|

			2.
  Q    Q    Q    Q         W                   W                  
--2--------------------||--3----------------|--L----------------||
--3--------------------||--1----------------|--L----------------||
--4-------------------*||--2----------------|--L----------------||
----------------------*||-------------------|-------------------||
--0----0----0----0-----||--0----------------|--L----------------||
-----------------------||-------------------|-------------------||




Duration Legend
---------------
W - whole
H - half
Q - quarter
E - 8th
S - 16th
T - 32nd
X - 64th
. - note dotted
|-n-|  - n-tuplets


Tablature Legend
----------------
L - tied note
^ - brush up
v - brush down
Login or Register to remove this ad.