Temple of Nept (Final Fantasy III) Bass/Guitar Tab

Submitted: Dec 07, 2010 by hashel (Last updated: Oct 15, 2014)

5
Average: 5 (2 votes)
Download | Listen
Game: Final Fantasy III
Composer(s): Nobuo Uematsu
Style: 2 or more instruments, Transcription
Series: Final Fantasy

This song is also called Nept's Shrine

AutoScroll: Slow | Medium | Fast
Melody
     E  E  E  E  E  E  E  E     E  E  E  E  E  E  E  E     E  E  E  E  E  E  E  E   
E||--------------------------|--------------------------|--------------------------|
B||-----------x-----------x--|--------------------------|--------------------------|
G||--------x-----------x-----|--------------------------|--------------------------|
D||-----x-----------x--------|--3--------2--3-----5--2--|--3--------2--3-----5-----|
A||--x-----------x-----------|-----5--4--------5--------|-----5--4--------5-----5--|
E||--------------------------|--------------------------|--------------------------|


         |--3--|                   |--3--|                   |--3--|               
    Q    E  E  E  H           Q    E  E  E  H           Q    E  E  E  E  E  E  E   
|--------------------------|-------------------------|----------------------------|
|--------------------------|-------------------------|----------------------------|
|*-------------------------|-------------5--4--------|-------------7--5--4--------|
|*--7----------7--6--------|--7----------------------|--7-------7-----------7--6--|
|--------5--8--------------|-------5--8--------------|-------8--------------------|
|--------------------------|-------------------------|----------------------------|


                            |--3--|                   |--3--|            
  H.           Q       Q    E  E  E  H           Q    E  E  E  H         
--------------------|-------------------------|-------------------------|
--------------------|-------------------------|-------------------------|
--------------------|-------------------------|-------------5--4--------|
--7-----------------|--7----------7--6--------|--7----------------------|
--------------------|-------5--8--------------|-------5--8--------------|
--------------------|-------------------------|-------------------------|


       |--3--|                                                   |--3--|   
  Q    E  E  E  E  E  E  E     H.           Q       H.           E  E  E   
----------------------------|--------------------|------------------------|
----------------------------|--------------------|--5---------------------|
-------------7--5--4-----4--|--5-----------------|---------------5-----5--|
--7-------7-----------7-----|---------------7----|------------------7-----|
-------8--------------------|--------------------|------------------------|
----------------------------|--------------------|------------------------|


                                    |--3--|                        
  H.           Q       H.           E  E  E     H.           Q     
--------------------|------------------------|--------------------|
--------------------|------------------------|--------------------|
--7-----------------|--5------------5-----5--|--4-----------------|
---------------7----|------------------7-----|---------------7----|
--------------------|------------------------|--------------------|
--------------------|------------------------|--------------------|


               |--3--|                                       |--3--|   
  H.           E  E  E     H.           Q       H.           E  E  E   
------------------------|--------------------|------------------------|
--5---------------------|--------------------|------------------------|
---------------5-----5--|--7-----------------|--5------------5-----5--|
------------------7-----|---------------7----|------------------7-----|
------------------------|--------------------|------------------------|
------------------------|--------------------|------------------------|


  H.           Q       
---------------------||
---------------------||
--4-----------------*||
--------------------*||
---------------------||
---------------------||



Bass /!\ 5 strings /!\
             Q    Q    Q    Q       Q    Q    Q    Q         H.           Q     
G||-------|----------------------|----------------------||---------------------|
D||-------|----------------------|----------------------||*---------------0----|
A||-------|----------------------|----------------------||---------------------|
E||-------|----------------------|----------------------||*--------------------|
B||-------|--3----3----3----3----|--3----3----3----3----||---3-----------------|


  W                   H.           Q       W                   H.           Q     
-------------------|--------------------|-------------------|--------------------|
-------------------|---------------0----|-------------------|---------------0----|
-------------------|--------------------|-------------------|--------------------|
-------------------|--------------------|-------------------|--------------------|
--3----------------|--3-----------------|--3----------------|--3-----------------|


  W                   H.           Q       W                   Q    Q    Q    Q     
-------------------|--------------------|-------------------|----------------------|
-------------------|---------------0----|-------------------|----------------------|
-------------------|--------------------|-------------------|----------------------|
-------------------|--------------------|-------------------|----------------------|
--3----------------|--3-----------------|--3----------------|--3----3----3----3----|


  Q    Q    Q    Q       Q    Q    Q    Q       Q    Q    Q    Q     
----------------------|----------------------|----------------------|
----------------------|----------------------|----------------------|
----------------------|----------------------|----------------------|
----------------------|----------------------|----------------------|
--3----3----3----3----|--3----3----3----3----|--3----3----3----3----|


  Q    Q    Q    Q       Q    Q    Q    Q       Q    Q    Q    Q     
----------------------|----------------------|----------------------|
----------------------|----------------------|----------------------|
----------------------|----------------------|----------------------|
----------------------|----------------------|----------------------|
--3----3----3----3----|--3----3----3----3----|--3----3----3----3----|


  Q    Q    Q    Q       
-----------------------||
----------------------*||
-----------------------||
----------------------*||
--3----3----3----3-----||



Chords
             W                   W                     H         H         
E||-------|--1----------------|--L----------------||---1------------------|
B||-------|--3----------------|--L----------------||---3---------9--------|
G||-------|--2----------------|--L----------------||*--2---------9--------|
D||-------|--0----------------|--L----------------||*--0---------9--------|
A||-------|-------------------|-------------------||-------------7--------|
E||-------|-------------------|-------------------||------------10--------|


  H         H           W                   W                   H         H         
--1------------------|--1----------------|--1----------------|--1------------------|
--3---------9--------|--3----------------|--3----------------|--3---------9--------|
--2---------9--------|--2----------------|--2----------------|--2---------9--------|
--0---------9--------|--0----------------|--0----------------|--0---------9--------|
------------7--------|-------------------|-------------------|------------7--------|
-----------10--------|-------------------|-------------------|-----------10--------|


  H         H           W                   W                   W                 
--1------------------|--1----------------|--L----------------|--1----------------|
--3---------9--------|--3----------------|--L----------------|--3----------------|
--2---------9--------|--2----------------|--L----------------|--2----------------|
--0---------9--------|--0----------------|--L----------------|--0----------------|
------------7--------|-------------------|-------------------|-------------------|
-----------10--------|-------------------|-------------------|-------------------|


   W                   W                   W                   W                 
---7----------------|--5----------------|--5----------------|--1----------------|
---8----------------|--6----------------|--3----------------|--3----------------|
---7----------------|--5----------------|--5----------------|--2----------------|
---9----------------|--7----------------|--3----------------|--0----------------|
---7----------------|--5----------------|-------------------|-------------------|
--10----------------|-------------------|-------------------|-------------------|


   W                   W                   W                   
---7----------------|--5----------------|--5-----------------||
---8----------------|--6----------------|--3-----------------||
---7----------------|--5----------------|--5----------------*||
---9----------------|--7----------------|--3----------------*||
---7----------------|--5----------------|--------------------||
--10----------------|-------------------|--------------------||
Login or Register to remove this ad.

3 comments on Temple of Nept

Nice job

5

Nice job

thanks ^^ oh i forgot to

thanks ^^ oh i forgot to cover this one ^^' so you have to do it :D

Yeah I was wondering if you

Yeah I was wondering if you were going to! Give me a few days to memorize it XD