Ads

Salonia (Final Fantasy III) Guitar Tab

Submitted: Oct 22, 2014 by JordanVS

0
Download | Listen
Game: Final Fantasy III
Composer(s): Nobuo Uematsu
Style: Arrangement, Fingerstyle
Series: Final Fantasy

This song is also called The Megalopolis of Salonia / Giant Metropolis Salonia

AutoScroll: Slow | Medium | Fast
Salonia                                               
Giant Metropolis Salonia
Final Fantasy III
Nobuo Uematsu
JordanVS

-4/4
-Tempo : 132
-Triplet 8th feel

                                                              |--3-|  |-3|     
      Q    Q    Q    Q       Q    Q    Q    Q       Q    Q    Q    E  E  Q     
E||-----------------------|----------------------|----------------------------|
B||-----------------------|-----------------1----|--2-----------------4-------|
G||*--0--------------2----|--3-------------------|-------2----4---------------|
D||*--2---------2---------|--1---------1---------|-------2--------------------|
A||--------2---------2----|-------1---------1----|--0---------2----2-----2----|
E||-----------------------|----------------------|----------------------------|


            |--3-|  |-3|                   |----3----|                 |----3----|     
  Q    Q    Q    E  E  Q         Q    Q    Q    Q    Q       Q    Q    Q    Q    Q     
-----------------------------||---------------------------|---------------------------|
--2---------4----------------||--2------------------------|--L------------------------|
-------2------------4-------*||--1------------------------|--L------------------------|
-------2--------------------*||--3------------------------|--L------------------------|
--0---------2----2-----2-----||--4----4----4----4----4----|--4----4----4----4----4----|
-----------------------------||---------------------------|---------------------------|


                                                          |--3-|  |-3|     
  Q    Q    Q    Q       Q    Q    Q    Q       Q    Q    Q    E  E  Q     
----------------------|----------------------|----------------------------|
----------------------|-----------------1----|--0-----------------1-------|
-----------------1----|--2-------------------|--1----1----2---------------|
--4---------4---------|--3---------3---------|--2----2----4---------------|
-------4---------4----|-------3---------3----|------------5----5-----5----|
----------------------|----------------------|----------------------------|


            |--3-|  |-3|                                                                          
  Q    Q    Q    E  E  Q       Q    Q    Q    Q       Q    Q    Q    Q       Q    Q    Q    Q     
----------------------------|----------------------|-----------------0----|--1---------0----1----|
--0-----------------1-------|--0--------------1----|--3-------------------|-------3--------------|
--1----1----2---------------|--0---------0---------|--4-------------------|--2--------------2----|
--2----2----3----3-----3----|-------0--------------|--4----0----4---------|--0-------------------|
----------------------------|-----------------2----|-----------------2----|-------2----4---------|
----------------------------|----------------------|----------------------|----------------------|


                                         |--3--|     |--3--|                  
  Q    Q    Q    Q       Q    E  E  Q    E  E  E     E  E  E  E  E  H         
--1----0--------------|------------------------1--|--0-----------------------|
------------3----1----|--3---------------0--3-----|--------1--1--------------|
----------------------|--0-------0--0-------------|--0-----------0--0--------|
--0----2----3----4----|---------------------------|--------------------------|
----------------------|---------------------------|--------------------------|
----------------------|---------------------------|--------------------------|


                  |--3--|     |--3--|             |--3--|     |--3--|            |--3--|   
  Q    E  E  Q    E  E  E     E  E  E  E  E  Q    E  E  E     E  E  E  Q    Q    E  E  E   
------------------------1--|--0----------------------0--3--|--2------------------------2--|
--3---------------0--3-----|--------1--1----------1--------|--------3--3------------3-----|
--0-------0--0-------------|--0-----------0--0-------------|---------------------4--------|
---------------------------|-------------------------------|--0--------0----0----0--------|
---------------------------|-------------------------------|------------------------------|
---------------------------|-------------------------------|------------------------------|

								* Da capo
  |--3--|            |--3--|                                               
  E  E  E  Q    Q    E  E  E     H        Q    Q       H        H          
--0------------------------0--|---------------------|--------------------||
--------1--1------------1-----|--4--------1---------|--0-----------------||
---------------------2--------|---------------------|-----------2--------||
------------------------------|----------------1----|--4-----------------||
--3--------3----3----3--------|--2------------------|-----------2--------||
------------------------------|---------------------|--------------------||




Duration Legend
---------------
W - whole
H - half
Q - quarter
E - 8th
S - 16th
T - 32nd
X - 64th
. - note dotted
|-n-|  - n-tuplets


Tablature Legend
----------------
L - tied note
^ - brush up
v - brush down
Login or Register to remove this ad.