Salonia (Final Fantasy III) Guitar Tab

Submitted: Sep 08, 2011 by BacardiBreezer

0
Download | Listen
Game: Final Fantasy III
Composer(s): Nobuo Uematsu
Style: 2 or more instruments, Transcription
Series: Final Fantasy

AutoScroll: Slow | Medium | Fast
Salonia 
Final Fantasy 3
Composer: Nobuo Uematsu
Tabbed by Bacardibreezer
9/8/11

Lead

e|-------------------8-9-------11-9----11--------|
B|---------10-11~--------10-12------10----12~----|
G|--12~------------------------------------------|
D|-----------------------------------------------|
A|-----------------------------------------------|
E|-----------------------------------------------| 

e|-------------------8-9-------11-9----11------9~-|
B|---------10-11~--------10-12------10----12------|
G|--12~-------------------------------------------|
D|------------------------------------------------|
A|------------------------------------------------|
E|------------------------------------------------| 

e|-------------------8-7------8-7------8~----|
B|----------9-10~--------9-10-----9-10-------|
G|--11~--------------------------------------|
D|-------------------------------------------|
A|-------------------------------------------|
E|-------------------------------------------|

e|-------------------12-13----12-15-13-12-------|----------------13-12-----------|
B|--12~----13-15~----------15-------------15-13-|15--------12-15---------13-13~--|
G|----------------------------------------------|-----12-------------------------|
D|----------------------------------------------|--------------------------------|
A|----------------------------------------------|--------------------------------|
E|----------------------------------------------|--------------------------------|

e|------------------13-12-------------|
B|--15--------12-15---------13-13~----|
G|-------12---------------------------|
D|------------------------------------|
A|------------------------------------|
E|------------------------------------|

e|-----12-15-14------------|--------14-12-------------|--------12-11-------------------|
B|--13-------------15-15~--|-----15----------13-13~---|-----13---------13---12---------|
G|-------------------------|--16----------------------|--14----------------------14~---|
D|-------------------------|--------------------------|--------------------------------|
A|-------------------------|--------------------------|--------------------------------|
E|-------------------------|--------------------------|--------------------------------|

Rhythm

e|----------------------------------------------------|
B|-----------0----------------------------------------|
G|-----2--3-----0----0-----------1--2--3--4-----------|
D|---------------------------------------------4------|
A|----------------------------------------------------|
E|----------------------------------------------------|

e|---------------------------------------------------------------------------------------------------------------|
B|-----------0---------------------------------------------6-4-------4-----------------6-4-------4---------------|
G|-----2--3-----0----0-----------1--2--3--4--------------------6-5-6---3-5-6---6-4---------6-5-6---3-5-6---6-4---|
D|---------------------------------------------4-----------------------------6---------------------------6-------|
A|---------------------------------------------------------------------------------------------------------------|
E|---------------------------------------------------------------------------------------------------------------|

e|------------------------------0-1-0-------0-1-0-------4-2-0------2-0---------4-2-0--------1-0-------|
B|----0-2-4-2-0---0-2-4-2-0-1-3-------3-1-3-------3-----------3--------3-1-----------3----------3-1---|
G|--2-----------2-------------------------------------------------------------------------------------|
D|----------------------------------------------------------------------------------------------------|
A|----------------------------------------------------------------------------------------------------|
E|----------------------------------------------------------------------------------------------------|

e|--3----------3---0-------2---------2-----------10----------------6------------|-----------1-----------0--3-|
B|-------0-1-3-----------------0-2-3-----3------------10--8------8---10-8-------|--0--1--3--------1--3-------|
G|-------------------------------------------------------------9----------10-9--|----------------------------|
D|------------------------------------------------------------------------------|----------------------------|
A|------------------------------------------------------------------------------|----------------------------|
E|------------------------------------------------------------------------------|----------------------------|

e|-----------1----------0--3--|-----0--1--2--|--3--0------------------------------0--2-------|
B|--0--1--3-------1--3--------|--3-----------|--------1--0----------0-1----3-4------------4--|
G|----------------------------|--------------|------------------2----------------------------|
D|----------------------------|--------------|-----------------------------------------------|
A|----------------------------|--------------|-----------------------------------------------|
E|----------------------------|--------------|-----------------------------------------------|
Login or Register to remove this ad.