Sailing Enterprise (Final Fantasy III) Guitar Tab

Submitted: Oct 25, 2014 by JordanVS

0
Download | Listen
Game: Final Fantasy III
Composer(s): Nobuo Uematsu
Style: Arrangement, Fingerstyle
Series: Final Fantasy

This song is also called Enterprise Sails the Ocean

AutoScroll: Slow | Medium | Fast
Sailing Enterprise                                          
Enterprise Sails the Ocean
Final Fantasy III
Nobuo Uematsu
JordanVS

-4/4
-Tempo : 146

     Q    E  E     E  E  E  E  E  E  E  E       E  E  E  E  E  E  E  E   
E||-------------|--------------------------||---0-----------------------|
B||-------------|--------------------------||---2--------3--L-----------|
G||----------2--|-----------2-----------2--||*-----------2--L--------2--|
D||-------------|--------------------------||*--------------------------|
A||-------------|--0--0--------0--0--------||---0--0--------0--0--------|
E||-------------|--------------------------||---------------------------|


  E  E  E  E  E  E  S  S S  S    E  E  E  E  E  E  E  E     E  E  E  E  E  E  E  E   
--2--------0--L---------------|--0-----0-----------------|--2--2-----0--L-----------|
--3--------2--L----------2h-3-|--2-----2-----3-----------|-----------2--L-----------|
-----------2--------2h-4------|-----------2--------------|--------------------------|
------------------------------|--------------0-----------|--4--2--0--------0--1--2--|
--0--0--------0--0------------|--0--0-----------2--0-----|-----------4--L-----------|
------------------------------|-----------------------3--|--------------------------|


    Q    Q    E  E  E  E     Q    E  E  Q    Q       E  E  E  E  E  E  E  E   
|-------------------------|--0----2--0------------|-----------2--4--5--4--2--|
|----------------0--2--3--|--2----------3---------|--------3-----------------|
|*--2---------L-----------|-----------------------|-----2--------------------|
|*------------------------|------------------6----|--4-----------2-----------|
|---0----0----0-----0-----|--0----0-----2----4----|--5-----------------------|
|-------------------------|-----------------------|--------------------------|


  Q    Q    E  E  E  E     Q    E  E  Q    E  E     Q.     Q    Q    E     E  E  E  E  E  E  E  E   
--0---------------2--0--|------------------------|----------------------|--------------------------|
---------------2--------|--3---------------3--1--|--2-------------------|-----------2--L--2--0-----|
------------------------|----------2--1----------|---------2------------|--------2--------------2--|
------------4--2--0-----|-------------2----2-----|---------4----4----2--|--1--4--------------------|
--4----4-------------4--|--2----2----------------|--0-----------5-------|--2-----------2-----------|
------------------------|------------------------|----------------------|--------------------------|

1.			    2.
  E  E  E  E  E  E  E  E       E  Q    E  E  E  E  E     W                  
---------------------------||----------------0--2--4--|--5----------------||
--0------------------------||--0--2----3--L-----------|--5----------------||
--------------------------*||-----2----1--L-----------|--6----------------||
--------2--2--L-----2-----*||----------------4--2--0--|-------------------||
-----------------2-----2---||-------------------------|--0----------------||
--0--2--3--4--L------------||-------------------------|-------------------||




Duration Legend
---------------
W - whole
H - half
Q - quarter
E - 8th
S - 16th
T - 32nd
X - 64th
. - note dotted
|-n-|  - n-tuplets


Tablature Legend
----------------
L - tied note
^ - brush up
v - brush down
Login or Register to remove this ad.