Return of the Warrior (Final Fantasy III) Guitar Tab

Submitted: Oct 11, 2014 by JordanVS

5
Average: 5 (1 vote)
Download | Listen
Game: Final Fantasy III
Composer(s): Nobuo Uematsu
Style: Arrangement, Fingerstyle
Series: Final Fantasy

This song is also called Return of the Hero

AutoScroll: Slow | Medium | Fast
Return of the Warrior                                         
Return of the Hero
Final Fantasy III
Nobuo Uemastu
JordanVS      

-4/4
-Tempo : 123


	            Triplet 8th feel
 2/4		     4/4
          |--3--|                                                                               
     Q    E  E  E       Q    E.  S Q    Q       Q    Q    E  E  E  E     Q    E.  S Q    E.  S  
E||----------------||------------------------|------------------------|------------------------|
B||-------0--------||--------------0---------|------------------------|--3----L---3-3----2---0-|
G||----------2--0--||*-----------------------|---------------------2--|------------------------|
D||----------------||*--4----L---4-----------|--0------------0--4-----|-------------2----2-----|
A||----------------||---5----5-----4----4----|--2----2----0-----0-----|------------------------|
E||----------------||------------------------|------------------------|--4----4----------------|


                          |--3--|                                          |--3--|   
  Q    E.  S Q    Q       E  E  E  E  E  E  E  E  E     S S S S E  E  Q    E  E  E   
--0----L---------------|-----------------------------|------------------------------|
-----------------------|--0--------------------------|------------------------------|
-----------2-2----2----|--------------------------0--|--------0-2----------------2--|
------------------4----|--------2--2-----L--2--4-----|--4-2-4---------4----0--4-----|
--0----0---------------|-----------------------2-----|--5----------5-------0--------|
-------------3----2----|--0-----------0--3-----------|------------------------------|


  |--3--|                                                                        
  E  E  E  E  E  E  E  E  E     S S S S E  E  Q    Q       Q    E.  S Q    Q     
-----------------------------|----------0---------------|--2----L---2------0----|
--3-----0--0-----L--0--2--3--|--2-0-2-3-----------------|-------------2---------|
-----------------------------|--2----------2-------2----|-----------------------|
-----------------0-----4-----|----------------2---------|--4----2---------------|
--2-----------2--------------|---------------------0----|-------------4----1----|
-----------------------------|--------------------------|-----------------------|


                                             |--3--|          |--3--|             
  Q    E.  S E  E  E  E     E  E  E  E  Q    E  E  E     Q    E  E  E  Q    Q     
-------------------------|-------------------------0--|--2----------0--2---------|
--3----L---2-0--3--2--0--|--------3----------3--3-----|-------3--3---------------|
-------------------------|--2-----------2-------------|--------------------------|
-------------------------|-----4-----4----------------|--0-------------0---------|
--2----2---2-2-----------|--5-----0-----5----0--------|-------0-------------0----|
-------------------------|----------------------------|--------------------------|


                   |--3--|          |--3--|       |--3--|                          
  E  E  E  E  Q    E  E  E     Q    E  E  E  Q    E  E  E       W                  
----------------------------|--0-------------0--------------||-------------------||
--------2----------2--2--3--|-------2--2--3-------0---------||--3----------------||
--0-----------0-------------|------------------------2--0--*||--2----------------||
-----2-----2----------------|------------------------------*||--4----------------||
--4-----0-----4----0--------|--4----0--------4----0---------||--5----------------||
----------------------------|-------------------------------||-------------------||




Duration Legend
---------------
W - whole
H - half
Q - quarter
E - 8th
S - 16th
T - 32nd
X - 64th
. - note dotted
|-n-|  - n-tuplets


Tablature Legend
----------------
L - tied note
^ - brush up
v - brush down
Login or Register to remove this ad.