Ads

Requiem (Final Fantasy III) Guitar Tab

Submitted: Apr 26, 2009 by Randolf (Last updated: Feb 03, 2010)

5
Average: 5 (4 votes)
Download | Listen
Game: Final Fantasy III
Composer(s): Nobuo Uematsu
Style: 2 or more instruments, Arrangement, Fingerstyle
Series: Final Fantasy

AutoScroll: Slow | Medium | Fast
Requiem
Final Fantasy III
Composed by Nobuo Uematsu
Arranged by Pim and Daan van den Berg

Guitar 1


                 |----3----|                               
     E  E  E  E  Q    Q    Q         Q    E  E  Q    Q     
E||-----------------------------||------------------------|
B||------------------------2----||---3----2--0--2---------|
G||-------------------2---------||*------------------2----|
D||-----------0--4--------------||*-----------------------|
A||-----0--4--------------------||------------------------|
E||--2--------------------------||------------------------|


  Q    E  E  Q    Q       E  E  E  E  E  E  E  E     E  E  E  E  E  E  E  E   
-----------------------|--------------------------|--------------------------|
--0--------------------|-----2--3--2-----2--3--2--|-----2--3--2-----2--3--2--|
-------2--0--2---------|--------------------------|--------------------------|
------------------4----|--3-----------4-----------|--3-----------4-----------|
-----------------------|--------------------------|--------------------------|
-----------------------|--4-----------2-----------|--4-----------2-----------|


  E  E  E  E  E  E  E  E     E  E  E  E  H           Q    E  E  E  E  E  E   
--------------------------|--------2--7--4--------|--5----4--2--0-----0--4--|
-----2--3--2-----2--3--2--|--0--3-----------------|----------------0--------|
--------------------------|-----------------------|-------------------------|
--3-----------4-----------|-----------------------|-------------------------|
--------------------------|-----------------------|-------------------------|
--4-----------2-----------|-----------------------|-------------------------|


  H.           E  E     Q    E  E  E  E  E  E     H        H           
--2---------------4--|--5----7--5--4-----0--4--|---------------------||
--2------------7-----|----------------7--------|--7------------------||
--2------------------|-------------------------|--------------------*||
--4------------------|-------------------------|--------------------*||
---------------------|-------------------------|---------------------||
---------------------|-------------------------|-----------2---------||


                                     ^                              
  Q    E  E  E  E  E  E     H        H           W                  
--5----7--5--4-----0--4--|-----------2--------|--L----------------||
----------------7--------|--7--------2--------|--L----------------||
-------------------------|-----------3--------|--L----------------||
-------------------------|-----------4--------|--L----------------||
-------------------------|-----------4--------|--L----------------||
-------------------------|-----------2--------|--L----------------||


Guitar 2

                                      ^         ^           ^        ^         
                 |----3----|                                                   
     E  E  E  E  Q    Q    Q          H         H           H        H         
E||--------------2----5----9----||---10---------9--------|--7--------5--------|
B||--------2--3-----------------||----7--------10--------|--8--------7--------|
G||-----2-----------------------||*---0--------11--------|--9--------7--------|
D||--4--------------------------||*---0------------------|--9--------7--------|
A||-----------------------------||-----------------------|--7--------0--------|
E||-----------------------------||--------------9--------|--0-----------------|


  S S S S S S S S S S S S S S S S    S S S S S S S S S S S S S S S S  
--4---------------2---------------|--4---------------2---------------|
------2---2---2-------2---2---2---|------2---2---2-------2---2---2---|
----6---6---6---6---6---6---6---6-|----6---6---6---6---6---6---6---6-|
----------------------------------|----------------------------------|
----------------------------------|----------------------------------|
----------------------------------|----------------------------------|


  S S S S S S S S S S S S S S S S    E  E  E  E  H         
--4---------------2---------------|-----------------------|
------2---2---2-------2---2---2---|--0--------------------|
----6---6---6---6---6---6---6---6-|-----2--1--------------|
----------------------------------|-----------4--3--------|
----------------------------------|-----------------------|
----------------------------------|-----------------------|


  E  E  E  E  E  E  E  E     E  E  E  E  E  E  E  E   
--------2--5-----------4--|--2-----------------------|
-----3--------------5-----|-----2-----2-----2--------|
-----------------4--------|--------------------------|
--0-----------6-----------|--------6-----4-----4--2--|
--------------------------|--------------------------|
--------------------------|--------------------------|


  E  E  E  E  E  E  E  E     E  E  E  E  H             E  E  E  E  E  E  E  E   
-----------2-----------0--|------------------------||-----------2-----------0--|
--------3-----------0-----|-----2--0--2------------||--------3-----------0-----|
-----2-----------1--------|--------------3--------*||-----2-----------1--------|
--0-----------2-----------|--4--------------------*||--0-----------2-----------|
--------------------------|------------------------||--------------------------|
--------------------------|------------------------||--------------------------|


              ^                              
  E  E  E  E  H           W                  
--------------6--------|--L----------------||
-----2--0--2-----------|-------------------||
--------------6--------|--L----------------||
--4-----------4--------|--L----------------||
-----------------------|-------------------||
-----------------------|-------------------||

Duration Legend
---------------
W - whole
H - half
Q - quarter
E - 8th
S - 16th
T - 32nd
X - 64th
. - note dotted
|-n-|  - n-tuplets
Login or Register to remove this ad.