Pavilion of Dorga and Une (Final Fantasy III) Bass/Guitar Tab

Submitted: Dec 07, 2010 by hashel (Last updated: Aug 30, 2014)

5
Average: 5 (1 vote)
Download | Listen
Game: Final Fantasy III
Composer(s): Nobuo Uematsu
Style: 2 or more instruments, Transcription
Series: Final Fantasy

This song is also called Dorga and Unne's Mansion, Let Me Know the Truth

Click here for a video example.

AutoScroll: Slow | Medium | Fast
Melody
                            ^               ^               ^               ^             
     E  E  E  E  E  E       H.              H.              H.              H.            
E||--------------------||---1------------|--0------------|--3------------|---------------|
B||--------x--------x--||---3------------|--1------------|--5------------|--3------------|
G||-----x--------x-----||*--x------------|--x------------|--x------------|--3------------|
D||--x--------x--------||*--x------------|--x------------|--x------------|--x------------|
A||--------------------||---x------------|--x------------|--x------------|--x------------|
E||--------------------||----------------|---------------|---------------|--x------------|


  S S S S S S S S S S S S    S S S S S S S S S S S S    S S S S S S S S S S S S  
--------------------------|------------------------5-|--7-----8-7---------------|
--------------------------|--5-------5-6-8-6-5-6-8---|----8-5-----8-5-----6-5---|
------------4-5-4---4-5-7-|----7-5-7-----------------|----------------7-5-----5-|
--7-5---5-7-------7-------|--------------------------|--------------------------|
------8-------------------|--------------------------|--------------------------|
--------------------------|--------------------------|--------------------------|


  S S S S S S S S S S S S    S S S S S S S S S S S S    S S S S S S S S S S S S  
--------------------------|--------------------------|------------------------5-|
--------------------------|--------------------------|--5-------5-6-8-6-5-6-8---|
--4-----5-4---------------|------------4-5-4---4-5-7-|----7-5-7-----------------|
----5-------5-------------|--7-5---5-7-------7-------|--------------------------|
------7-------7-5---8-7---|------8-------------------|--------------------------|
------------------8-----8-|--------------------------|--------------------------|


  S S S S S S S S S S S S    S S S S S S S S S S S S    S S S S S S Q.      
--7-----8-7---------------|--------------------------|---------------------|
----8-5-----8-5-----6-5---|--------------------------|---------------------|
----------------7-5-----5-|--4-----5-4---------------|--7-5-------5-7------|
--------------------------|----5-------5-------------|------8-7-8----------|
--------------------------|------7-------7-5---8-7---|---------------------|
--------------------------|------------------8-----8-|---------------------|


  S S S S S S E.  S S S    S S S S S S Q.        S S S S S S E.  S S S  
------------------------|---------------------|------------------------|
--------------------5-6-|--8-6-5---5-6-8------|------------------5-6-8-|
------------------7-L-L-|--------7------------|--5-----------5---------|
--7-5-------5-7---------|---------------------|----8-7-5-7-8-----------|
------8-7-8-------------|---------------------|------------------------|
------------------------|---------------------|------------------------|


  S S S S S S E  E  E     S S S S S S Q.        
-----------------------|--6-5-----------------||
--6-5-------5-8--------|------8-6-5-6-8-------||
------7-5-7------7--7--|---------------------*||
-----------------------|---------------------*||
-----------------------|----------------------||
-----------------------|----------------------||




Bass
                                               E  Q    Q.        E  Q    Q.      
G||-------||--------|-------|-------|-------|-----2----2------|-----5----5------|
D||-------||*-------|-------|-------|-------|--0--------------|--3--------------|
A||-------||*-------|-------|-------|-------|-----------------|-----------------|
E||-------||--------|-------|-------|-------|-----------------|-----------------|


  E  Q    Q.        E  Q    Q.        E  Q    Q.        E  Q    Q.        E  Q    Q.      
-----5----5------|-----0----0------|-----2----2------|-----5----5------|-----5----5------|
--2--------------|-----------------|--0--------------|--3--------------|--2--------------|
-----------------|--3--------------|-----------------|-----------------|-----------------|
-----------------|-----------------|-----------------|-----------------|-----------------|


  E  Q    Q.        E  E  E  Q.        Q.     Q    E     E  E  E  Q.      
-----0----0------|--------3--7------|-----------------|--------0--3------|
-----------------|-----3------------|--------------3--|-----0------------|
--3--------------|--1---------------|--2------2-------|------------------|
-----------------|------------------|-----------------|--3---------------|


  E  E  E  Q.        E  E  E  E  E  E     E  E  E  Q.        
-----0--5--9------|-----2--5--0--------|--------3--5-------||
------------------|--3-----------0-----|-----3------------*||
--3---------------|-----------------2--|--1---------------*||
------------------|--------------------|-------------------||



Chords
                  |--3--|  |--3--|           |--3--|  |--3--|      
               E  E  E  E  E  E  E  E     E  E  E  E  E  E  E  E   
E||-------||------1--1--1--1--1--L--L--|-----0--0--0--0--0--L--L--|
B||-------||------3--3--3--3--3--L--L--|-----1--1--1--1--1--L--L--|
G||-------||*--------------------------|--------------------------|
D||-------||*--------------------------|--------------------------|
A||-------||---------------------------|--------------------------|
E||-------||---------------------------|--------------------------|


     |--3--|  |--3--|           |--3--|  |--3--|                         
  E  E  E  E  E  E  E  E     E  E  E  E  E  E  E  E     E  E  E  Q.      
-----3--3--3--3--3--L--L--|--------------------------|-----------1------|
-----5--5--5--5--5--L--L--|-----3--3--3--3--3--L--L--|--------3---------|
--------------------------|-----3--3--3--3--3--L--L--|-----2------------|
--------------------------|--------------------------|--0---------------|
--------------------------|--------------------------|------------------|
--------------------------|--------------------------|------------------|


  E  E  E  Q.        E  E  E  Q.        E  E  E  E  E  E     E  E  E  Q.      
------------------|------------------|--------------0-----|-----------1------|
-----------1------|-----------1------|-----------1-----1--|--------3---------|
--------2---------|--------0---------|--------0-----------|-----2------------|
-----3------------|-----2------------|-----2--------------|--0---------------|
--3---------------|--3---------------|--3-----------------|------------------|
------------------|------------------|--------------------|------------------|


  E  E  E  Q.        E  E  E  Q.        E  E  E  E  E  E     E  E  E  E  E  E   
------------------|------------------|--------------0-----|--------------------|
-----------1------|-----------1------|-----------1-----1--|-----------3--------|
--------2---------|--------0---------|--------0-----------|--------3-----3-----|
-----3------------|-----2------------|-----2--------------|-----3-----------3--|
--3---------------|--3---------------|--3-----------------|--1-----------------|
------------------|------------------|--------------------|--------------------|


  E  E  E  E  E  E     E  E  E  E  E  E     E  E  E  E  E  E     E  E  E  E  E  E   
--------------------|--------------------|--------------------|--------------------|
-----------3--------|--------------------|-----------5--------|--------------------|
--------3-----3-----|-----------3--------|--------3-----3-----|-----------2--------|
-----3-----------3--|--------5-----5-----|-----5-----------5--|--------3-----0-----|
--1-----------------|-----5-----------5--|--3-----------------|-----3-----------2--|
--------------------|--3-----------------|--------------------|--1-----------------|


  E  E  E  E  E  E     
---------------------||
-----------3---------||
--------3-----0-----*||
-----3-----------2--*||
--2------------------||
---------------------||
Login or Register to remove this ad.

2 comments on Pavilion of Dorga and Une

Intro v2

5

Good job on the tab !
This is another way to play the intro :

      ^               ^               ^               ^    
E||---13-----------|---------------|---------------|---------------|
B||---15-----------|--17-----------|--17h20--------|--15-----------|
G||---14-----------|--17-----------|--17-----------|--15-----------|
D||---12-----------|--17-----------|--17-----------|--15-----------|
A||----------------|--15-----------|---------------|---------------|
E||----------------|---------------|---------------|---------------|

This is based on the DS version of the song. You can add a delay on the last note of each measure if you want.

Thank you for providing us with another great FF tab ;)

You'r welcome ^^

You'r welcome ^^