Jinn, the Fire (Final Fantasy III) Guitar Tab

Submitted: Sep 26, 2014 by JordanVS

5
Average: 5 (1 vote)
Download | Listen
Game: Final Fantasy III
Composer(s): Nobuo Uematsu
Style: Arrangement, Fingerstyle
Series: Final Fantasy

This song is also called Djinn's Curse

AutoScroll: Slow | Medium | Fast
Jinn, the Fire                                            
Djinn's Curse
Final Fantasy III
Nobuo Uematsu
JordanVS

                                                                                   Final Fantasy III
*Capo on the 5th fret
-4/4
-Tempo : 140


     Q    Q    Q    Q       Q    E  E  Q    Q       Q    Q    Q    Q       Q    E  E  Q    Q     
E||----------------------|----------0------------|----------------------|----------0------------|
B||----------------------|----------3------------|----------------------|----------3------------|
G||----------------------|-----------------------|----------------------|-----------------------|
D||------------2---------|-------------3---------|------------2---------|-------------3---------|
A||--0-------------------|--1--------------------|--0-------------------|--1--------------------|
E||-----------------0----|------------------0----|-----------------0----|------------------0----|


    E  E  E  E  E  E  E  E     Q    E  E  E  E  E  E     Q    E  E  Q    Q     
|---------------0--3--7--5--|--3-------3--3-----0--2--|--0--------------------|
|---------0--1--------------|----------------3--------|--1---------------0----|
|*-----2--------------------|-------------------------|----------2--L---------|
|*--------------2-----------|-------------3-----------|-------------2---------|
|---0-----------------------|--1----------------------|--0--------------------|
|---------------------0-----|-------------------0-----|------------------0----|


  Q    E  E  Q    Q         Q    E  E  Q.     E     E  E  E  E  Q    Q     
------------------------||-----------------------|--------------7----0----|
--1---------------------||--3-------3--0------1--|--0-----------9---------|
----------3--L----1----*||-----------------------|--1---------------------|
-------------3---------*||-------------3---------|--------2---------------|
--1---------------------||----------0------------|-----------2--7---------|
------------------0-----||--1-----------------1--|--0--0-------------0----|


  E  E  E  E  E  E  E  E     E  E  E  E  Q    Q       Q    E  E  Q.     E   
--------------------------|------------------------|-----------------------|
--3--1--0--1--0--------0--|------------------------|--3-------3--0------1--|
-----------------2--1-----|------------------------|-----------------------|
--------------3-----------|--2-----------2---------|-------------3---------|
-----------0--------------|-----------2------------|----------0------------|
--1--------------------1--|--0--0-------------0----|--1-----------------1--|


  E  E  E  E  Q    Q       E  E  E  E  E  E  E  E     E  E  E  E  Q    Q      
--------------7----0----|--------------------------|------------------------||
--0-----------9---------|--3--1--0--1--0--------0--|------------------------||
--1---------------------|-----------------2--1-----|------------------------||
--------2---------------|--------------3-----------|--2-----------2---------||
-----------2--7---------|-----------0--------------|-----------2------------||
--0--0-------------0----|--1--------------------1--|--0--0-------------0----||




Duration Legend
---------------
W - whole
H - half
Q - quarter
E - 8th
S - 16th
T - 32nd
X - 64th
. - note dotted
|-n-|  - n-tuplets


Login or Register to remove this ad.