Ads

The Invincible (Final Fantasy III) Guitar Tab

Submitted: Oct 25, 2014 by JordanVS

0
Download | Listen
Game: Final Fantasy III
Composer(s): Nobuo Uematsu
Style: Arrangement, Fingerstyle
Series: Final Fantasy

This song is also called Giant Battleship Invincible

AutoScroll: Slow | Medium | Fast
The Invincible                                            
Giant Battleship Invincible
Final Fantasy III
Nobuo Uematsu
JordanVS

-4/4
-Tempo : 152

                                 ^                                                   
      E  E  E  E  E  E  E  E     E  E  E  E  E  E  E  E     E  E  E  E  E  E  E  E   
E||---------------------------|--3-----------2-----0-----|--------2-----------------|
B||---3-----------------------|--5-----------------------|--3--5-----3--L-----------|
G||*--4-----------0-----------|--4-----------------------|--------------------------|
D||*--------------------------|--------------------------|--4-----------------------|
A||---------------------------|--------------------------|--2--2--2--2--2--2--2--2--|
E||---3--3--3--3--3--3--3--3--|--0--0--0--0--0--0--0--0--|--------------------------|


                                                        ^                        
  E  E  E  E  E  E  E  E     E  E  E  E  E  E  E  E     E  E  E  E  E  E  E  E   
--------------------------|--------------------------|--6-----------5-----3-----|
--------------------------|--3-----------------------|--3-----------------------|
--------------------------|--------------3-----------|--3-----------------------|
--------------0--0--4--4--|--3-----------------------|--------------------------|
--2--2--4--4--------------|--1--1--1--1--1--1--1--1--|--------------------------|
--------------------------|--------------------------|--3--3--3--3--3--3--3--3--|


                             ^                                                   
  E  E  E  E  E  E  E  E     E  E  E  E  E  E  E  E     E  E  E  E  E  E  E  E   
--1--3--5--1--L-----------|--0-----------------------|--------------------------|
-----------------1--3-----|--1-----------------------|-----------------------2--|
--2--L--------------------|--0-----------------------|-----------2--------2-----|
--0--0--0--0--0--0--0--0--|--------------------------|--------2--------2--------|
--------------------------|--3--3--3--3--3--3--3--3--|-----4--------4-----------|
--------------------------|--------------------------|--5-----------5-----------|


  E  E  E  E  E  E  E  E     E  E  E  E  E  E  E  E     S S S S E  E  E  E  E  E   
--2-----------------------|--------------------2-----|----------------------------|
--------------2-----------|--L-----2-----2-----------|--5-3-2-3-0-----------------|
--3-----------3-----------|--L-----------------------|--0-------0-----0-----0-----|
--4-----4-----4-----4-----|--4-----4-----4-----4-----|------0------0-----0-----0--|
-----4-----4-----4-----4--|-----4-----4-----4-----4--|----------------------------|
--------------------------|--------------------------|----------------------------|


  E  E  E  E  E  E  E  E     E  E  E  E  E  E  E  E     E  E  E  E  E  E  E  E   
--------------------------|--2-----------------------|--------------------2-----|
--------------------------|--------------2-----------|--L-----2-----2-----------|
--0-----0-----0-----0-----|--3-----------3-----------|--L-----------------------|
-----0-----0-----0-----0--|--4-----4-----4-----4-----|--4-----4-----4-----4-----|
--------------------------|-----4-----4-----4-----4--|-----4-----4-----4-----4--|
--------------------------|--------------------------|--------------------------|


  S S S S E  E  E  E  E  E     E  E  E  E  E  E  E  E     E  E  E  E  E  E  E  E   
----------------------------|--------------------------|--5-----------------------|
--5-3-2-3-0-----------------|--------------------------|--------------------------|
--0-------0-----0-----0-----|--0-----0-----0-----0-----|--------------6-----------|
------0------0-----0-----0--|-----0-----0-----0-----0--|--4-----4-----4-----4-----|
----------------------------|--------------------------|-----4-----4-----4-----4--|
----------------------------|--------------------------|--------------------------|


  E  E  E  E  E  E  E  E     S S S S E  E  E  E  E  E     E  E  E  E  E  E  E  E   
--------------------5-----|--3-2-0-2-------------------|--------------------0-----|
--------7-----8-----------|----------3-----------------|--------------3-----------|
--L-----------------------|--0-------0-----0-----0-----|--0-----0-----0-----0-----|
--4-----4-----4-----4-----|------0------0-----0-----0--|-----0-----0-----0-----0--|
-----4-----4-----4-----4--|----------------------------|--------------------------|
--------------------------|----------------------------|--------------------------|


  E  E  E  E  E  E  E  E     E  E  E  E  E  E  E  E     S  S S S E  E  E  E  S S S S  
--2-----------------------|--------------0-----2-----|--3p-2---2-------------2-----2-|
--------------3-----------|--L-----3-----------------|-------5---3-------------5-3---|
--1-----1-----1-----1-----|--1-----1-----1-----1-----|--2--------2-----2-----2-------|
-----2-----2-----2-----2--|-----2-----2-----2-----2--|-------2------2-----2------2---|
--------------------------|--------------------------|-------------------------------|
--------------------------|--------------------------|-------------------------------|


                               ^      
  E  E  E  E  E  E  E  E       Q      
--0------------------------||--0----||
--2------------------------||--2----||
--2-----2-----2-----2-----*||--2----||
-----2-----2-----2-----2--*||-------||
---------------------------||--0----||
---------------------------||-------||




Duration Legend
---------------
W - whole
H - half
Q - quarter
E - 8th
S - 16th
T - 32nd
X - 64th
. - note dotted
|-n-|  - n-tuplets


Tablature Legend
----------------
L - tied note
^ - brush up
v - brush down
Login or Register to remove this ad.