Ads

In the Covert Town (Final Fantasy III) Guitar Tab

Submitted: Oct 30, 2014 by JordanVS

5
Average: 5 (2 votes)
Download | Listen
Game: Final Fantasy III
Composer(s): Nobuo Uematsu
Style: Arrangement, Fingerstyle
Series: Final Fantasy

This song is also called Hidden Town of Falgabard

AutoScroll: Slow | Medium | Fast
In the Covert Town                                          
Hidden Town of Falgabard
Final Fantasy III
Nobuo Uematsu                                                                
JordanVS

-4/4
-Tempo : 130

     H        Q    E  E     H        Q    Q       Q    Q    Q    Q       H.           Q     
E||----------------------|---------------------|----------------------|--------------------|
B||--3----------------3--|--1-------------1----|----------------------|--------------------|
G||--3--------3----5-----|--2--------2---------|--3----2----0----3----|--2-----------------|
D||--5-------------------|--3------------------|--1---------2---------|--4-----------------|
A||----------------------|---------------------|----------------------|--5-----------------|
E||----------------------|---------------------|----------------------|--------------------|


  H        Q    E  E     H        Q    Q       Q    Q    Q    Q       H.           Q     
--1----------------1--|---------------------|----------------------|--------------------|
--2--------2----4-----|--4-------------4----|--2----1---------2----|--1-----------------|
--3-------------------|--5--------5---------|------------3---------|--2-----------------|
----------------------|---------------------|--4---------5---------|--3-----------------|
----------------------|--6------------------|----------------------|--------------------|
----------------------|---------------------|----------------------|--------------------|


  E  E  E  E  Q    E  E     E  E  E  E  H           E  E  E  E  E  E  E  E   
--5-------------------5--|--3--------------------|--1--0-----------------1--|
--6-----------6----8-----|--5-----5-----5--------|--------3--------1--3-----|
--------------7----------|--------5-----5--------|--------------3-----------|
--------7--7-------------|--------5--5-----------|--------3--3--------------|
--5--5-------------------|--3--3-----------------|--1--1--------------------|
-------------------------|-----------------------|--------------------------|


  E  E  E  E  E  E  E  E     E  E  E  E  Q    E  E     E  E  E  E  H         
--0-----------------------|--5-------------------5--|--3--------------------|
--2-----------------------|--6-----------6----8-----|--5-----5-----5--------|
--------2-----2--2--------|--------------7----------|--------5-----5--------|
--------2--2--------------|--------7--7-------------|--------5--5-----------|
-----0--------------0--0--|--5--5-------------------|--3--3-----------------|
--------------------------|-------------------------|-----------------------|


  E  E  E  E  E  E  E  E     E  E  E  E  E  E  E  E     E  E  E  E  E  E  E  E   
--1--0-----------------1--|--0-----------------------|--------------3-----------|
--------3--------1--3-----|--2-----------------------|--------3--5-----6--5--3--|
--------------3-----------|--------2-----2--2--------|--3--5--------------------|
--------3--3--------------|--------2--2--------------|--------------------------|
--1--1--------------------|-----0--------------0--0--|--------5--5--------------|
--------------------------|--------------------------|--3--3--------------------|


  E  E  E  E  H           E  E  E  E  E  E  E  E     E  E  E  E  E  E  E  E   
--------5--------------|-----0--1--0--------------|--------------------------|
-----------------------|--3-----------3--1-----1--|--------------------------|
--6--------------------|--------3--3--------3-----|--2--------------2--------|
--------------7--------|--------------------------|--------2--2--------------|
--------7--7-----------|--1--1--------------------|--0--0--------------0--0--|
--5--5-----------------|--------------------------|--------------------------|


  E  E  E  E  E  E  E  E     E  E  E  E  H           E  E  E  E  E  E  E  E   
--------------3-----------|--------5--------------|-----0--1--5--3--1--0-----|
--------3--5-----6--5--3--|-----------------------|--3--------------------3--|
--3--5--------------------|--6--------------------|--------3--3--------------|
--------------------------|--------------7--------|--------------------------|
--------5--5--------------|--------7--7-----------|--1--1--------------------|
--3--3--------------------|--5--5-----------------|--------------------------|


  E  E  E  E  Q    Q       E  E  E  E  E  E  E  E     E  E  E  E  E  E  E  E   
--0---------------------|--------------------------|--------------------------|
--------0--3--2---------|--3--5--3--5--3--5--3--5--|--3--5--3--5--3--5--3--5--|
--------1--1--2---------|--------2-----------------|--------------------------|
--2--2------------------|--0-----------0-----------|--L-----0--0--------------|
-------------------0----|--------------------------|--------------------------|
------------------------|--------------------------|--------------------------|


                                                        ^                  
  E  E  E  E  E  E  E  E     E  E  E  E  E  E  E  E     W                  
-----0-----0-----0-----0--|-----0-----0-----0-----0--|--3----------------||
--1-----1-----1-----1-----|--1-----1-----1-----1-----|--3----------------||
--------------------------|--------------------------|--3----------------||
--0-----------------------|--------0--0--------------|--5----------------||
--------0-----3-----------|--L-----------------------|-------------------||
--------------------------|--------------------------|-------------------||




Duration Legend
---------------
W - whole
H - half
Q - quarter
E - 8th
S - 16th
T - 32nd
X - 64th
. - note dotted
|-n-|  - n-tuplets


Tablature Legend
----------------
L - tied note
^ - brush up
v - brush down
Login or Register to remove this ad.

1 comment on In the Covert Town

This is great, I really like

5

This is great, I really like this one